  0
SECTION
  2
HEADER
  9
$ACADVER
  1
AC1024
  9
$ACADMAINTVER
 70
     6
  9
$DWGCODEPAGE
  3
ANSI_1252
  9
$INSBASE
 10
0.0
 20
0.0
 30
0.0
  9
$EXTMIN
 10
1.000000000000000E+20
 20
1.000000000000000E+20
 30
1.000000000000000E+20
  9
$EXTMAX
 10
-1.000000000000000E+20
 20
-1.000000000000000E+20
 30
-1.000000000000000E+20
  9
$LIMMIN
 10
0.0
 20
0.0
  9
$LIMMAX
 10
12.0
 20
9.0
  9
$ORTHOMODE
 70
     0
  9
$REGENMODE
 70
     1
  9
$FILLMODE
 70
     1
  9
$QTEXTMODE
 70
     0
  9
$MIRRTEXT
 70
     1
  9
$LTSCALE
 40
1.0
  9
$ATTMODE
 70
     1
  9
$TEXTSIZE
 40
0.2
  9
$TRACEWID
 40
0.05
  9
$TEXTSTYLE
  7
Standard
  9
$CLAYER
  8
0
  9
$CELTYPE
  6
ByLayer
  9
$CECOLOR
 62
   256
  9
$CELTSCALE
 40
1.0
  9
$DISPSILH
 70
     0
  9
$DIMSCALE
 40
1.0
  9
$DIMASZ
 40
0.18
  9
$DIMEXO
 40
0.0625
  9
$DIMDLI
 40
0.38
  9
$DIMRND
 40
0.0
  9
$DIMDLE
 40
0.0
  9
$DIMEXE
 40
0.18
  9
$DIMTP
 40
0.0
  9
$DIMTM
 40
0.0
  9
$DIMTXT
 40
0.18
  9
$DIMCEN
 40
0.09
  9
$DIMTSZ
 40
0.0
  9
$DIMTOL
 70
     0
  9
$DIMLIM
 70
     0
  9
$DIMTIH
 70
     1
  9
$DIMTOH
 70
     1
  9
$DIMSE1
 70
     0
  9
$DIMSE2
 70
     0
  9
$DIMTAD
 70
     0
  9
$DIMZIN
 70
     0
  9
$DIMBLK
  1

  9
$DIMASO
 70
     1
  9
$DIMSHO
 70
     1
  9
$DIMPOST
  1

  9
$DIMAPOST
  1

  9
$DIMALT
 70
     0
  9
$DIMALTD
 70
     2
  9
$DIMALTF
 40
25.4
  9
$DIMLFAC
 40
1.0
  9
$DIMTOFL
 70
     0
  9
$DIMTVP
 40
0.0
  9
$DIMTIX
 70
     0
  9
$DIMSOXD
 70
     0
  9
$DIMSAH
 70
     0
  9
$DIMBLK1
  1

  9
$DIMBLK2
  1

  9
$DIMSTYLE
  2
Standard
  9
$DIMCLRD
 70
     0
  9
$DIMCLRE
 70
     0
  9
$DIMCLRT
 70
     0
  9
$DIMTFAC
 40
1.0
  9
$DIMGAP
 40
0.09
  9
$DIMJUST
 70
     0
  9
$DIMSD1
 70
     0
  9
$DIMSD2
 70
     0
  9
$DIMTOLJ
 70
     1
  9
$DIMTZIN
 70
     0
  9
$DIMALTZ
 70
     0
  9
$DIMALTTZ
 70
     0
  9
$DIMUPT
 70
     0
  9
$DIMDEC
 70
     4
  9
$DIMTDEC
 70
     4
  9
$DIMALTU
 70
     2
  9
$DIMALTTD
 70
     2
  9
$DIMTXSTY
  7
Standard
  9
$DIMAUNIT
 70
     0
  9
$DIMADEC
 70
     0
  9
$DIMALTRND
 40
0.0
  9
$DIMAZIN
 70
     0
  9
$DIMDSEP
 70
    46
  9
$DIMATFIT
 70
     3
  9
$DIMFRAC
 70
     0
  9
$DIMLDRBLK
  1

  9
$DIMLUNIT
 70
     2
  9
$DIMLWD
 70
    -2
  9
$DIMLWE
 70
    -2
  9
$DIMTMOVE
 70
     0
  9
$DIMFXL
 40
1.0
  9
$DIMFXLON
 70
     0
  9
$DIMJOGANG
 40
0.7853981633974483
  9
$DIMTFILL
 70
     0
  9
$DIMTFILLCLR
 70
     0
  9
$DIMARCSYM
 70
     0
  9
$DIMLTYPE
  6

  9
$DIMLTEX1
  6

  9
$DIMLTEX2
  6

  9
$DIMTXTDIRECTION
 70
     0
  9
$LUNITS
 70
     2
  9
$LUPREC
 70
     4
  9
$SKETCHINC
 40
0.1
  9
$FILLETRAD
 40
0.5
  9
$AUNITS
 70
     0
  9
$AUPREC
 70
     0
  9
$MENU
  1
.
  9
$ELEVATION
 40
0.0
  9
$PELEVATION
 40
0.0
  9
$THICKNESS
 40
0.0
  9
$LIMCHECK
 70
     0
  9
$CHAMFERA
 40
0.5
  9
$CHAMFERB
 40
0.5
  9
$CHAMFERC
 40
1.0
  9
$CHAMFERD
 40
0.0
  9
$SKPOLY
 70
     0
  9
$TDCREATE
 40
2457956.521905995
  9
$TDUCREATE
 40
2457956.438572662
  9
$TDUPDATE
 40
2457956.521906181
  9
$TDUUPDATE
 40
2457956.438572847
  9
$TDINDWG
 40
0.0000000116
  9
$TDUSRTIMER
 40
0.0000000116
  9
$USRTIMER
 70
     1
  9
$ANGBASE
 50
0.0
  9
$ANGDIR
 70
     0
  9
$PDMODE
 70
     0
  9
$PDSIZE
 40
0.0
  9
$PLINEWID
 40
0.0
  9
$SPLFRAME
 70
     0
  9
$SPLINETYPE
 70
     6
  9
$SPLINESEGS
 70
     8
  9
$HANDSEED
  5
4B0
  9
$SURFTAB1
 70
     6
  9
$SURFTAB2
 70
     6
  9
$SURFTYPE
 70
     6
  9
$SURFU
 70
     6
  9
$SURFV
 70
     6
  9
$UCSBASE
  2

  9
$UCSNAME
  2

  9
$UCSORG
 10
0.0
 20
0.0
 30
0.0
  9
$UCSXDIR
 10
1.0
 20
0.0
 30
0.0
  9
$UCSYDIR
 10
0.0
 20
1.0
 30
0.0
  9
$UCSORTHOREF
  2

  9
$UCSORTHOVIEW
 70
     0
  9
$UCSORGTOP
 10
0.0
 20
0.0
 30
0.0
  9
$UCSORGBOTTOM
 10
0.0
 20
0.0
 30
0.0
  9
$UCSORGLEFT
 10
0.0
 20
0.0
 30
0.0
  9
$UCSORGRIGHT
 10
0.0
 20
0.0
 30
0.0
  9
$UCSORGFRONT
 10
0.0
 20
0.0
 30
0.0
  9
$UCSORGBACK
 10
0.0
 20
0.0
 30
0.0
  9
$PUCSBASE
  2

  9
$PUCSNAME
  2

  9
$PUCSORG
 10
0.0
 20
0.0
 30
0.0
  9
$PUCSXDIR
 10
1.0
 20
0.0
 30
0.0
  9
$PUCSYDIR
 10
0.0
 20
1.0
 30
0.0
  9
$PUCSORTHOREF
  2

  9
$PUCSORTHOVIEW
 70
     0
  9
$PUCSORGTOP
 10
0.0
 20
0.0
 30
0.0
  9
$PUCSORGBOTTOM
 10
0.0
 20
0.0
 30
0.0
  9
$PUCSORGLEFT
 10
0.0
 20
0.0
 30
0.0
  9
$PUCSORGRIGHT
 10
0.0
 20
0.0
 30
0.0
  9
$PUCSORGFRONT
 10
0.0
 20
0.0
 30
0.0
  9
$PUCSORGBACK
 10
0.0
 20
0.0
 30
0.0
  9
$USERI1
 70
     0
  9
$USERI2
 70
     0
  9
$USERI3
 70
     0
  9
$USERI4
 70
     0
  9
$USERI5
 70
     0
  9
$USERR1
 40
0.0
  9
$USERR2
 40
0.0
  9
$USERR3
 40
0.0
  9
$USERR4
 40
0.0
  9
$USERR5
 40
0.0
  9
$WORLDVIEW
 70
     1
  9
$SHADEDGE
 70
     3
  9
$SHADEDIF
 70
    70
  9
$TILEMODE
 70
     1
  9
$MAXACTVP
 70
    64
  9
$PINSBASE
 10
0.0
 20
0.0
 30
0.0
  9
$PLIMCHECK
 70
     0
  9
$PEXTMIN
 10
1.000000000000000E+20
 20
1.000000000000000E+20
 30
1.000000000000000E+20
  9
$PEXTMAX
 10
-1.000000000000000E+20
 20
-1.000000000000000E+20
 30
-1.000000000000000E+20
  9
$PLIMMIN
 10
0.0
 20
0.0
  9
$PLIMMAX
 10
12.0
 20
9.0
  9
$UNITMODE
 70
     0
  9
$VISRETAIN
 70
     1
  9
$PLINEGEN
 70
     0
  9
$PSLTSCALE
 70
     1
  9
$TREEDEPTH
 70
  3020
  9
$CMLSTYLE
  2
Standard
  9
$CMLJUST
 70
     0
  9
$CMLSCALE
 40
1.0
  9
$PROXYGRAPHICS
 70
     1
  9
$MEASUREMENT
 70
     0
  9
$CELWEIGHT
370
    -1
  9
$ENDCAPS
280
     0
  9
$JOINSTYLE
280
     0
  9
$LWDISPLAY
290
     1
  9
$INSUNITS
 70
     1
  9
$HYPERLINKBASE
  1

  9
$STYLESHEET
  1

  9
$XEDIT
290
     1
  9
$CEPSNTYPE
380
     0
  9
$PSTYLEMODE
290
     1
  9
$FINGERPRINTGUID
  2
{FF66E53F-6AE3-4B26-9F84-79761E35AAED}
  9
$VERSIONGUID
  2
{FAEB1C32-E019-11D5-929B-00C0DF256EC4}
  9
$EXTNAMES
290
     1
  9
$PSVPSCALE
 40
0.0
  9
$OLESTARTUP
290
     0
  9
$SORTENTS
280
   127
  9
$INDEXCTL
280
     0
  9
$HIDETEXT
280
     1
  9
$XCLIPFRAME
280
     2
  9
$HALOGAP
280
     0
  9
$OBSCOLOR
 70
   257
  9
$OBSLTYPE
280
     0
  9
$INTERSECTIONDISPLAY
280
     0
  9
$INTERSECTIONCOLOR
 70
   257
  9
$DIMASSOC
280
     2
  9
$PROJECTNAME
  1

  9
$CAMERADISPLAY
290
     0
  9
$LENSLENGTH
 40
50.0
  9
$CAMERAHEIGHT
 40
0.0
  9
$STEPSPERSEC
 40
2.0
  9
$STEPSIZE
 40
6.0
  9
$3DDWFPREC
 40
2.0
  9
$PSOLWIDTH
 40
0.25
  9
$PSOLHEIGHT
 40
4.0
  9
$LOFTANG1
 40
1.570796326794897
  9
$LOFTANG2
 40
1.570796326794897
  9
$LOFTMAG1
 40
0.0
  9
$LOFTMAG2
 40
0.0
  9
$LOFTPARAM
 70
     7
  9
$LOFTNORMALS
280
     1
  9
$LATITUDE
 40
37.795
  9
$LONGITUDE
 40
-122.394
  9
$NORTHDIRECTION
 40
0.0
  9
$TIMEZONE
 70
 -8000
  9
$LIGHTGLYPHDISPLAY
280
     1
  9
$TILEMODELIGHTSYNCH
280
     1
  9
$CMATERIAL
347
3C
  9
$SOLIDHIST
280
     1
  9
$SHOWHIST
280
     1
  9
$DWFFRAME
280
     2
  9
$DGNFRAME
280
     2
  9
$REALWORLDSCALE
290
     1
  9
$INTERFERECOLOR
 62
   256
  9
$CSHADOW
280
     0
  9
$SHADOWPLANELOCATION
 40
0.0
  0
ENDSEC
  0
SECTION
  2
CLASSES
  0
CLASS
  1
ACDBDICTIONARYWDFLT
  2
AcDbDictionaryWithDefault
  3
ObjectDBX Classes
 90
        0
 91
        4
280
     0
281
     0
  0
CLASS
  1
VISUALSTYLE
  2
AcDbVisualStyle
  3
ObjectDBX Classes
 90
     4095
 91
        4
280
     0
281
     0
  0
CLASS
  1
MATERIAL
  2
AcDbMaterial
  3
ObjectDBX Classes
 90
     1153
 91
        4
280
     0
281
     0
  0
CLASS
  1
SUN
  2
AcDbSun
  3
SCENEOE
 90
     1024
 91
        4
280
     0
281
     0
  0
ENDSEC
  0
SECTION
  2
TABLES
  0
TABLE
  2
VPORT
  5
8
330
0
100
AcDbSymbolTable
 70
     1
  0
VPORT
  5
29
330
8
100
AcDbSymbolTableRecord
100
AcDbViewportTableRecord
  2
*Active
 70
     0
 10
0.0
 20
0.0
 11
1.0
 21
1.0
 12
0.0
 22
0.0
 13
0.0
 23
0.0
 14
0.5
 24
0.5
 15
0.5
 25
0.5
 16
0.0
 26
0.0
 36
1.0
 17
21.166666661375
 27
25.57638888249479
 37
0.0
 40
51.15277776498959
 41
0.8275862068965517
 42
50.0
 43
0.0
 44
0.0
 50
0.0
 51
0.0
 71
     0
 72
   100
 73
     1
 74
     3
 75
     0
 76
     0
 77
     0
 78
     0
281
     0
 65
     1
110
0.0
120
0.0
130
0.0
111
1.0
121
0.0
131
0.0
112
0.0
122
1.0
132
0.0
 79
     0
146
0.0
 60
     3
 61
     5
292
     1
282
     1
141
0.0
142
0.0
 63
   250
361
3F
  0
ENDTAB
  0
TABLE
  2
LTYPE
  5
5
330
0
100
AcDbSymbolTable
 70
     1
  0
LTYPE
  5
14
330
5
100
AcDbSymbolTableRecord
100
AcDbLinetypeTableRecord
  2
ByBlock
 70
     0
  3

 72
    65
 73
     0
 40
0.0
  0
LTYPE
  5
15
330
5
100
AcDbSymbolTableRecord
100
AcDbLinetypeTableRecord
  2
ByLayer
 70
     0
  3

 72
    65
 73
     0
 40
0.0
  0
LTYPE
  5
16
330
5
100
AcDbSymbolTableRecord
100
AcDbLinetypeTableRecord
  2
Continuous
 70
     0
  3
Solid line
 72
    65
 73
     0
 40
0.0
  0
ENDTAB
  0
TABLE
  2
LAYER
  5
2
330
0
100
AcDbSymbolTable
 70
     2
  0
LAYER
  5
10
330
2
100
AcDbSymbolTableRecord
100
AcDbLayerTableRecord
  2
0
 70
     0
 62
     7
  6
Continuous
370
    -3
390
F
347
3E
  0
LAYER
  5
40
330
2
100
AcDbSymbolTableRecord
100
AcDbLayerTableRecord
  2
Livello 1
 70
     0
 62
     7
  6
Continuous
370
    -3
390
F
347
3E
  0
ENDTAB
  0
TABLE
  2
STYLE
  5
3
330
0
100
AcDbSymbolTable
 70
     1
  0
STYLE
  5
11
330
3
100
AcDbSymbolTableRecord
100
AcDbTextStyleTableRecord
  2
Standard
 70
     0
 40
0.0
 41
1.0
 50
0.0
 71
     0
 42
0.2
  3
txt
  4

  0
ENDTAB
  0
TABLE
  2
VIEW
  5
6
330
0
100
AcDbSymbolTable
 70
     0
  0
ENDTAB
  0
TABLE
  2
UCS
  5
7
330
0
100
AcDbSymbolTable
 70
     0
  0
ENDTAB
  0
TABLE
  2
APPID
  5
9
330
0
100
AcDbSymbolTable
 70
     1
  0
APPID
  5
12
330
9
100
AcDbSymbolTableRecord
100
AcDbRegAppTableRecord
  2
ACAD
 70
     0
  0
ENDTAB
  0
TABLE
  2
DIMSTYLE
  5
A
330
0
100
AcDbSymbolTable
 70
     1
100
AcDbDimStyleTable
  0
DIMSTYLE
105
27
330
A
100
AcDbSymbolTableRecord
100
AcDbDimStyleTableRecord
  2
Standard
 70
     0
178
     0
340
11
  0
ENDTAB
  0
TABLE
  2
BLOCK_RECORD
  5
1
330
0
100
AcDbSymbolTable
 70
     8
  0
BLOCK_RECORD
  5
1F
330
1
100
AcDbSymbolTableRecord
100
AcDbBlockTableRecord
  2
*Model_Space
340
22
 70
     0
280
     1
281
     0
  0
BLOCK_RECORD
  5
1B
330
1
100
AcDbSymbolTableRecord
100
AcDbBlockTableRecord
  2
*Paper_Space
340
1E
 70
     0
280
     1
281
     0
  0
BLOCK_RECORD
  5
23
330
1
100
AcDbSymbolTableRecord
100
AcDbBlockTableRecord
  2
*Paper_Space0
340
26
 70
     0
280
     1
281
     0
  0
BLOCK_RECORD
  5
41
330
1
100
AcDbSymbolTableRecord
100
AcDbBlockTableRecord
  2
block 2
340
0
102
{BLKREFS
331
42
102
}
 70
     0
280
     1
281
     0
  0
BLOCK_RECORD
  5
68
330
1
100
AcDbSymbolTableRecord
100
AcDbBlockTableRecord
  2
block 3
340
0
102
{BLKREFS
331
69
102
}
 70
     0
280
     1
281
     0
  0
BLOCK_RECORD
  5
1D1
330
1
100
AcDbSymbolTableRecord
100
AcDbBlockTableRecord
  2
block 4
340
0
102
{BLKREFS
331
1D2
102
}
 70
     0
280
     1
281
     0
  0
BLOCK_RECORD
  5
272
330
1
100
AcDbSymbolTableRecord
100
AcDbBlockTableRecord
  2
block 5
340
0
102
{BLKREFS
331
273
102
}
 70
     0
280
     1
281
     0
  0
BLOCK_RECORD
  5
291
330
1
100
AcDbSymbolTableRecord
100
AcDbBlockTableRecord
  2
block 6
340
0
102
{BLKREFS
331
292
102
}
 70
     0
280
     1
281
     0
  0
BLOCK_RECORD
  5
3E6
330
1
100
AcDbSymbolTableRecord
100
AcDbBlockTableRecord
  2
block 7
340
0
102
{BLKREFS
331
3E7
102
}
 70
     0
280
     1
281
     0
  0
BLOCK_RECORD
  5
499
330
1
100
AcDbSymbolTableRecord
100
AcDbBlockTableRecord
  2
block 8
340
0
102
{BLKREFS
331
49A
102
}
 70
     0
280
     1
281
     0
  0
ENDTAB
  0
ENDSEC
  0
SECTION
  2
BLOCKS
  0
BLOCK
  5
20
330
1F
100
AcDbEntity
  8
0
100
AcDbBlockBegin
  2
*Model_Space
 70
     0
 10
0.0
 20
0.0
 30
0.0
  3
*Model_Space
  1

  0
ENDBLK
  5
21
330
1F
100
AcDbEntity
  8
0
100
AcDbBlockEnd
  0
BLOCK
  5
1C
330
1B
100
AcDbEntity
 67
     1
  8
0
100
AcDbBlockBegin
  2
*Paper_Space
 70
     0
 10
0.0
 20
0.0
 30
0.0
  3
*Paper_Space
  1

  0
ENDBLK
  5
1D
330
1B
100
AcDbEntity
 67
     1
  8
0
100
AcDbBlockEnd
  0
BLOCK
  5
24
330
23
100
AcDbEntity
  8
0
100
AcDbBlockBegin
  2
*Paper_Space0
 70
     0
 10
0.0
 20
0.0
 30
0.0
  3
*Paper_Space0
  1

  0
ENDBLK
  5
25
330
23
100
AcDbEntity
  8
0
100
AcDbBlockEnd
  0
BLOCK
  5
43
330
41
100
AcDbEntity
  8
0
100
AcDbBlockBegin
  2
block 2
 70
     0
 10
0.0
 20
0.0
 30
0.0
  3
block 2
  1

  0
MTEXT
  5
45
330
41
100
AcDbEntity
  8
Livello 1
 62
   251
420
  5723990
100
AcDbMText
 10
34.70313584201866
 20
50.40088567533381
 30
0.0
 40
0.7604645466572273
 41
0.0
 46
0.0
 71
     7
 72
     1
  1
\fBrandon Grotesque Medium|b0|i0|c0|p34;\W1;29
 73
     1
 44
1.0
  0
POLYLINE
  5
46
330
41
100
AcDbEntity
  8
Livello 1
 62
   251
420
  5723990
370
     9
100
AcDb2dPolyline
 66
     1
 10
0.0
 20
0.0
 30
0.0
  0
VERTEX
  5
47
330
46
100
AcDbEntity
  8
Livello 1
 62
   251
420
  5723990
370
     9
100
AcDbVertex
100
AcDb2dVertex
 10
38.77232383182574
 20
50.02466509945944
 30
0.0
  0
VERTEX
  5
48
330
46
100
AcDbEntity
  8
Livello 1
 62
   251
420
  5723990
370
     9
100
AcDbVertex
100
AcDb2dVertex
 10
38.77232383182574
 20
51.08546382898482
 30
0.0
  0
SEQEND
  5
49
330
46
100
AcDbEntity
  8
Livello 1
 62
   251
420
  5723990
370
     9
  0
POLYLINE
  5
4A
330
41
100
AcDbEntity
  8
Livello 1
 62
   251
420
  5723990
370
     9
100
AcDb2dPolyline
 66
     1
 10
0.0
 20
0.0
 30
0.0
  0
VERTEX
  5
4B
330
4A
100
AcDbEntity
  8
Livello 1
 62
   251
420
  5723990
370
     9
100
AcDbVertex
100
AcDb2dVertex
 10
32.51034064009968
 20
50.02466509945944
 30
0.0
  0
VERTEX
  5
4C
330
4A
100
AcDbEntity
  8
Livello 1
 62
   251
420
  5723990
370
     9
100
AcDbVertex
100
AcDb2dVertex
 10
32.51034064009968
 20
51.08546382898482
 30
0.0
  0
SEQEND
  5
4D
330
4A
100
AcDbEntity
  8
Livello 1
 62
   251
420
  5723990
370
     9
  0
POLYLINE
  5
4E
330
41
100
AcDbEntity
  8
Livello 1
370
     0
100
AcDb2dPolyline
 66
     1
 10
0.0
 20
0.0
 30
0.0
  0
VERTEX
  5
4F
330
4E
100
AcDbEntity
  8
Livello 1
370
     0
100
AcDbVertex
100
AcDb2dVertex
 10
0.0
 20
0.0
 30
0.0
  0
VERTEX
  5
50
330
4E
100
AcDbEntity
  8
Livello 1
370
     0
100
AcDbVertex
100
AcDb2dVertex
 10
42.33333332275
 20
0.0
 30
0.0
  0
VERTEX
  5
51
330
4E
100
AcDbEntity
  8
Livello 1
370
     0
100
AcDbVertex
100
AcDb2dVertex
 10
42.33333332275
 20
51.15277776498959
 30
0.0
  0
VERTEX
  5
52
330
4E
100
AcDbEntity
  8
Livello 1
370
     0
100
AcDbVertex
100
AcDb2dVertex
 10
0.0
 20
51.15277776498959
 30
0.0
  0
VERTEX
  5
53
330
4E
100
AcDbEntity
  8
Livello 1
370
     0
100
AcDbVertex
100
AcDb2dVertex
 10
0.0
 20
0.0
 30
0.0
  0
SEQEND
  5
54
330
4E
100
AcDbEntity
  8
Livello 1
370
     0
  0
ENDBLK
  5
44
330
41
100
AcDbEntity
  8
0
100
AcDbBlockEnd
  0
BLOCK
  5
6A
330
68
100
AcDbEntity
  8
0
100
AcDbBlockBegin
  2
block 3
 70
     0
 10
0.0
 20
0.0
 30
0.0
  3
block 3
  1

  0
POLYLINE
  5
6C
330
68
100
AcDbEntity
  8
Livello 1
 62
   251
420
  5723990
370
     9
100
AcDb2dPolyline
 66
     1
 10
0.0
 20
0.0
 30
0.0
  0
VERTEX
  5
6D
330
6C
100
AcDbEntity
  8
Livello 1
 62
   251
420
  5723990
370
     9
100
AcDbVertex
100
AcDb2dVertex
 10
38.18847434890557
 20
47.66905952957308
 30
0.0
  0
VERTEX
  5
6E
330
6C
100
AcDbEntity
  8
Livello 1
 62
   251
420
  5723990
370
     9
100
AcDbVertex
100
AcDb2dVertex
 10
38.23045606717036
 20
47.66905952957308
 30
0.0
  0
VERTEX
  5
6F
330
6C
100
AcDbEntity
  8
Livello 1
 62
   251
420
  5723990
370
     9
100
AcDbVertex
100
AcDb2dVertex
 10
38.2512692885668
 20
47.66905952957308
 30
0.0
  0
SEQEND
  5
70
330
6C
100
AcDbEntity
  8
Livello 1
 62
   251
420
  5723990
370
     9
  0
POLYLINE
  5
71
330
68
100
AcDbEntity
  8
Livello 1
 62
   251
420
  5723990
370
     9
100
AcDb2dPolyline
 66
     1
 10
0.0
 20
0.0
 30
0.0
  0
VERTEX
  5
72
330
71
100
AcDbEntity
  8
Livello 1
 62
   251
420
  5723990
370
     9
100
AcDbVertex
100
AcDb2dVertex
 10
38.29325100683158
 20
47.66905952957308
 30
0.0
  0
VERTEX
  5
73
330
71
100
AcDbEntity
  8
Livello 1
 62
   251
420
  5723990
370
     9
100
AcDbVertex
100
AcDb2dVertex
 10
38.27243778543514
 20
47.66905952957308
 30
0.0
  0
VERTEX
  5
74
330
71
100
AcDbEntity
  8
Livello 1
 62
   251
420
  5723990
370
     9
100
AcDbVertex
100
AcDb2dVertex
 10
38.23045606717036
 20
47.66905952957308
 30
0.0
  0
VERTEX
  5
75
330
71
100
AcDbEntity
  8
Livello 1
 62
   251
420
  5723990
370
     9
100
AcDbVertex
100
AcDb2dVertex
 10
38.20929026178285
 20
47.66905952957308
 30
0.0
  0
SEQEND
  5
76
330
71
100
AcDbEntity
  8
Livello 1
 62
   251
420
  5723990
370
     9
  0
SPLINE
  5
77
330
68
100
AcDbEntity
  8
Livello 1
 62
   251
420
  5723990
370
     9
100
AcDbSpline
210
0.0
220
0.0
230
1.0
 70
     8
 71
     3
 72
    17
 73
    13
 74
     0
 42
0.0000000001
 43
0.0000000001
 12
1.0
 22
0.0
 32
0.0
 13
1.0
 23
0.0
 33
0.0
 40
0.0
 40
0.0
 40
0.0
 40
0.0
 40
1.0
 40
1.0
 40
1.0
 40
2.0
 40
2.0
 40
2.0
 40
3.0
 40
3.0
 40
3.0
 40
4.0
 40
4.0
 40
4.0
 40
4.0
 10
40.11675888754026
 20
33.01432042885987
 30
0.0
 10
40.00669077826737
 20
33.06053315501747
 30
0.0
 10
39.888157961728
 20
33.08522749179651
 30
0.0
 10
39.76503886182388
 20
33.08522749179651
 30
0.0
 10
39.1706091676908
 20
33.08522749179651
 30
0.0
 10
38.68871297928724
 20
32.50349889578445
 30
0.0
 10
38.68871297928724
 20
31.78665257824854
 30
0.0
 10
38.68871297928724
 20
31.06875120022028
 30
0.0
 10
39.1706091676908
 20
30.4866673287363
 30
0.0
 10
39.76503886182388
 20
30.4866673287363
 30
0.0
 10
39.88180875840791
 20
30.4866673287363
 30
0.0
 10
39.99399237162721
 20
30.50924616156892
 30
0.0
 10
40.09947150605451
 20
30.55052002037073
 30
0.0
  0
POLYLINE
  5
78
330
68
100
AcDbEntity
  8
Livello 1
 62
   251
420
  5723990
370
     9
100
AcDb2dPolyline
 66
     1
 10
0.0
 20
0.0
 30
0.0
  0
VERTEX
  5
79
330
78
100
AcDbEntity
  8
Livello 1
 62
   251
420
  5723990
370
     9
100
AcDbVertex
100
AcDb2dVertex
 10
4.749023754204183
 20
48.31711428811875
 30
0.0
  0
VERTEX
  5
7A
330
78
100
AcDbEntity
  8
Livello 1
 62
   251
420
  5723990
370
     9
100
AcDbVertex
100
AcDb2dVertex
 10
4.749023754204183
 20
48.31711428811875
 30
0.0
  0
VERTEX
  5
7B
330
78
100
AcDbEntity
  8
Livello 1
 62
   251
420
  5723990
370
     9
100
AcDbVertex
100
AcDb2dVertex
 10
4.749023754204183
 20
48.33792481803434
 30
0.0
  0
VERTEX
  5
7C
330
78
100
AcDbEntity
  8
Livello 1
 62
   251
420
  5723990
370
     9
100
AcDbVertex
100
AcDb2dVertex
 10
4.769484728044656
 20
48.33792481803434
 30
0.0
  0
VERTEX
  5
7D
330
78
100
AcDbEntity
  8
Livello 1
 62
   251
420
  5723990
370
     9
100
AcDbVertex
100
AcDb2dVertex
 10
4.790651542737478
 20
48.33792481803434
 30
0.0
  0
VERTEX
  5
7E
330
78
100
AcDbEntity
  8
Livello 1
 62
   251
420
  5723990
370
     9
100
AcDbVertex
100
AcDb2dVertex
 10
4.811818357430299
 20
48.33792481803434
 30
0.0
  0
VERTEX
  5
7F
330
78
100
AcDbEntity
  8
Livello 1
 62
   251
420
  5723990
370
     9
100
AcDbVertex
100
AcDb2dVertex
 10
4.832632251696946
 20
48.33792481803434
 30
0.0
  0
VERTEX
  5
80
330
78
100
AcDbEntity
  8
Livello 1
 62
   251
420
  5723990
370
     9
100
AcDbVertex
100
AcDb2dVertex
 10
4.853798729954661
 20
48.33792481803434
 30
0.0
  0
VERTEX
  5
81
330
78
100
AcDbEntity
  8
Livello 1
 62
   251
420
  5723990
370
     9
100
AcDbVertex
100
AcDb2dVertex
 10
4.87426004023024
 20
48.33792481803434
 30
0.0
  0
VERTEX
  5
82
330
78
100
AcDbEntity
  8
Livello 1
 62
   251
420
  5723990
370
     9
100
AcDbVertex
100
AcDb2dVertex
 10
4.895426518487956
 20
48.31711428811875
 30
0.0
  0
SEQEND
  5
83
330
78
100
AcDbEntity
  8
Livello 1
 62
   251
420
  5723990
370
     9
  0
SPLINE
  5
84
330
68
100
AcDbEntity
  8
Livello 1
 62
   251
420
  5723990
370
     9
100
AcDbSpline
210
0.0
220
0.0
230
1.0
 70
     8
 71
     3
 72
    35
 73
    31
 74
     0
 42
0.0000000001
 43
0.0000000001
 12
1.0
 22
0.0
 32
0.0
 13
1.0
 23
0.0
 33
0.0
 40
0.0
 40
0.0
 40
0.0
 40
0.0
 40
1.0
 40
1.0
 40
1.0
 40
2.0
 40
2.0
 40
2.0
 40
3.0
 40
3.0
 40
3.0
 40
4.0
 40
4.0
 40
4.0
 40
5.0
 40
5.0
 40
5.0
 40
6.0
 40
6.0
 40
6.0
 40
7.0
 40
7.0
 40
7.0
 40
8.0
 40
8.0
 40
8.0
 40
9.0
 40
9.0
 40
9.0
 40
10.0
 40
10.0
 40
10.0
 40
10.0
 10
4.832632251696946
 20
48.29594848273125
 30
0.0
 10
4.832632251696946
 20
48.29594848273125
 30
0.0
 10
4.853798729954661
 20
48.29594848273125
 30
0.0
 10
4.853798729954661
 20
48.29594848273125
 30
0.0
 10
4.853798729954661
 20
48.29594848273125
 30
0.0
 10
4.87426004023024
 20
48.31711428811875
 30
0.0
 10
4.87426004023024
 20
48.31711428811875
 30
0.0
 10
4.87426004023024
 20
48.31711428811875
 30
0.0
 10
4.895426518487956
 20
48.31711428811875
 30
0.0
 10
4.895426518487956
 20
48.31711428811875
 30
0.0
 10
4.895426518487956
 20
48.31711428811875
 30
0.0
 10
4.87426004023024
 20
48.31711428811875
 30
0.0
 10
4.87426004023024
 20
48.31711428811875
 30
0.0
 10
4.87426004023024
 20
48.31711428811875
 30
0.0
 10
4.853798729954661
 20
48.31711428811875
 30
0.0
 10
4.853798729954661
 20
48.31711428811875
 30
0.0
 10
4.853798729954661
 20
48.31711428811875
 30
0.0
 10
4.832632251696946
 20
48.31711428811875
 30
0.0
 10
4.832632251696946
 20
48.31711428811875
 30
0.0
 10
4.832632251696946
 20
48.31711428811875
 30
0.0
 10
4.790651542737478
 20
48.31711428811875
 30
0.0
 10
4.790651542737478
 20
48.31711428811875
 30
0.0
 10
4.790651542737478
 20
48.31711428811875
 30
0.0
 10
4.769484728044656
 20
48.31711428811875
 30
0.0
 10
4.769484728044656
 20
48.31711428811875
 30
0.0
 10
4.769484728044656
 20
48.31711428811875
 30
0.0
 10
4.790651542737478
 20
48.31711428811875
 30
0.0
 10
4.790651542737478
 20
48.31711428811875
 30
0.0
 10
4.790651542737478
 20
48.31711428811875
 30
0.0
 10
4.811818357430299
 20
48.29594848273125
 30
0.0
 10
4.811818357430299
 20
48.29594848273125
 30
0.0
  0
POLYLINE
  5
85
330
68
100
AcDbEntity
  8
Livello 1
 62
   251
420
  5723990
370
     9
100
AcDb2dPolyline
 66
     1
 10
0.0
 20
0.0
 30
0.0
  0
VERTEX
  5
86
330
85
100
AcDbEntity
  8
Livello 1
 62
   251
420
  5723990
370
     9
100
AcDbVertex
100
AcDb2dVertex
 10
4.707043381679821
 20
49.1126245163948
 30
0.0
  0
VERTEX
  5
87
330
85
100
AcDbEntity
  8
Livello 1
 62
   251
420
  5723990
370
     9
100
AcDbVertex
100
AcDb2dVertex
 10
4.685876566986999
 20
48.61027038206673
 30
0.0
  0
SEQEND
  5
88
330
85
100
AcDbEntity
  8
Livello 1
 62
   251
420
  5723990
370
     9
  0
POLYLINE
  5
89
330
68
100
AcDbEntity
  8
Livello 1
 62
   251
420
  5723990
370
     9
100
AcDb2dPolyline
 66
     1
 10
0.0
 20
0.0
 30
0.0
  0
VERTEX
  5
8A
330
89
100
AcDbEntity
  8
Livello 1
 62
   251
420
  5723990
370
     9
100
AcDbVertex
100
AcDb2dVertex
 10
4.979035015980719
 20
49.133795704744
 30
0.0
  0
VERTEX
  5
8B
330
89
100
AcDbEntity
  8
Livello 1
 62
   251
420
  5723990
370
     9
100
AcDbVertex
100
AcDb2dVertex
 10
4.979035015980719
 20
49.133795704744
 30
0.0
  0
VERTEX
  5
8C
330
89
100
AcDbEntity
  8
Livello 1
 62
   251
420
  5723990
370
     9
100
AcDbVertex
100
AcDb2dVertex
 10
4.971273794520833
 20
49.14931478331272
 30
0.0
  0
VERTEX
  5
8D
330
89
100
AcDbEntity
  8
Livello 1
 62
   251
420
  5723990
370
     9
100
AcDbVertex
100
AcDb2dVertex
 10
4.951165404671429
 20
49.15213545524126
 30
0.0
  0
VERTEX
  5
8E
330
89
100
AcDbEntity
  8
Livello 1
 62
   251
420
  5723990
370
     9
100
AcDbVertex
100
AcDb2dVertex
 10
4.916240412754603
 20
49.15531140264173
 30
0.0
  0
VERTEX
  5
8F
330
89
100
AcDbEntity
  8
Livello 1
 62
   251
420
  5723990
370
     9
100
AcDbVertex
100
AcDb2dVertex
 10
4.87426004023024
 20
49.15531140264173
 30
0.0
  0
VERTEX
  5
90
330
89
100
AcDbEntity
  8
Livello 1
 62
   251
420
  5723990
370
     9
100
AcDbVertex
100
AcDb2dVertex
 10
4.853798729954661
 20
49.15531140264173
 30
0.0
  0
VERTEX
  5
91
330
89
100
AcDbEntity
  8
Livello 1
 62
   251
420
  5723990
370
     9
100
AcDbVertex
100
AcDb2dVertex
 10
4.811818357430299
 20
49.15531140264173
 30
0.0
  0
VERTEX
  5
92
330
89
100
AcDbEntity
  8
Livello 1
 62
   251
420
  5723990
370
     9
100
AcDbVertex
100
AcDb2dVertex
 10
4.769484728044656
 20
49.15531140264173
 30
0.0
  0
VERTEX
  5
93
330
89
100
AcDbEntity
  8
Livello 1
 62
   251
420
  5723990
370
     9
100
AcDbVertex
100
AcDb2dVertex
 10
4.749023754204183
 20
49.15531140264173
 30
0.0
  0
VERTEX
  5
94
330
89
100
AcDbEntity
  8
Livello 1
 62
   251
420
  5723990
370
     9
100
AcDbVertex
100
AcDb2dVertex
 10
4.727856939511361
 20
49.15531140264173
 30
0.0
  0
VERTEX
  5
95
330
89
100
AcDbEntity
  8
Livello 1
 62
   251
420
  5723990
370
     9
100
AcDbVertex
100
AcDb2dVertex
 10
4.707043381679821
 20
49.133795704744
 30
0.0
  0
SEQEND
  5
96
330
89
100
AcDbEntity
  8
Livello 1
 62
   251
420
  5723990
370
     9
  0
SPLINE
  5
97
330
68
100
AcDbEntity
  8
Livello 1
 62
   251
420
  5723990
370
     9
100
AcDbSpline
210
0.0
220
0.0
230
1.0
 70
    24
 71
     3
 72
    20
 73
    16
 74
     0
 42
0.0000000001
 43
0.0000000001
 12
1.0
 22
0.0
 32
0.0
 13
1.0
 23
0.0
 33
0.0
 40
0.0
 40
0.0
 40
0.0
 40
0.0
 40
1.0
 40
1.0
 40
1.0
 40
2.0
 40
2.0
 40
2.0
 40
3.0
 40
3.0
 40
3.0
 40
4.0
 40
4.0
 40
4.0
 40
5.0
 40
5.0
 40
5.0
 40
5.0
 10
4.832632251696946
 20
48.31711428811875
 30
0.0
 10
4.832632251696946
 20
48.31711428811875
 30
0.0
 10
4.853798729954661
 20
48.31711428811875
 30
0.0
 10
4.853798729954661
 20
48.31711428811875
 30
0.0
 10
4.853798729954661
 20
48.31711428811875
 30
0.0
 10
4.832632251696946
 20
48.31711428811875
 30
0.0
 10
4.832632251696946
 20
48.31711428811875
 30
0.0
 10
4.832632251696946
 20
48.31711428811875
 30
0.0
 10
4.811818357430299
 20
48.31711428811875
 30
0.0
 10
4.811818357430299
 20
48.31711428811875
 30
0.0
 10
4.811818357430299
 20
48.31711428811875
 30
0.0
 10
4.790651542737478
 20
48.31711428811875
 30
0.0
 10
4.790651542737478
 20
48.31711428811875
 30
0.0
 10
4.790651542737478
 20
48.31711428811875
 30
0.0
 10
4.811818357430299
 20
48.31711428811875
 30
0.0
 10
4.811818357430299
 20
48.31711428811875
 30
0.0
  0
POLYLINE
  5
98
330
68
100
AcDbEntity
  8
Livello 1
 62
   251
420
  5723990
370
     9
100
AcDb2dPolyline
 66
     1
 10
0.0
 20
0.0
 30
0.0
  0
VERTEX
  5
99
330
98
100
AcDbEntity
  8
Livello 1
 62
   251
420
  5723990
370
     9
100
AcDbVertex
100
AcDb2dVertex
 10
4.895426518487956
 20
48.52666222100907
 30
0.0
  0
VERTEX
  5
9A
330
98
100
AcDbEntity
  8
Livello 1
 62
   251
420
  5723990
370
     9
100
AcDbVertex
100
AcDb2dVertex
 10
4.895426518487956
 20
48.52666222100907
 30
0.0
  0
VERTEX
  5
9B
330
98
100
AcDbEntity
  8
Livello 1
 62
   251
420
  5723990
370
     9
100
AcDbVertex
100
AcDb2dVertex
 10
4.93705430702125
 20
48.52666222100907
 30
0.0
  0
VERTEX
  5
9C
330
98
100
AcDbEntity
  8
Livello 1
 62
   251
420
  5723990
370
     9
100
AcDbVertex
100
AcDb2dVertex
 10
4.958221121714072
 20
48.54747813388635
 30
0.0
  0
VERTEX
  5
9D
330
98
100
AcDbEntity
  8
Livello 1
 62
   251
420
  5723990
370
     9
100
AcDbVertex
100
AcDb2dVertex
 10
4.93705430702125
 20
48.56864393927385
 30
0.0
  0
VERTEX
  5
9E
330
98
100
AcDbEntity
  8
Livello 1
 62
   251
420
  5723990
370
     9
100
AcDbVertex
100
AcDb2dVertex
 10
4.895426518487956
 20
48.56864393927385
 30
0.0
  0
VERTEX
  5
9F
330
98
100
AcDbEntity
  8
Livello 1
 62
   251
420
  5723990
370
     9
100
AcDbVertex
100
AcDb2dVertex
 10
4.87426004023024
 20
48.56864393927385
 30
0.0
  0
VERTEX
  5
A0
330
98
100
AcDbEntity
  8
Livello 1
 62
   251
420
  5723990
370
     9
100
AcDbVertex
100
AcDb2dVertex
 10
4.832632251696946
 20
48.56864393927385
 30
0.0
  0
VERTEX
  5
A1
330
98
100
AcDbEntity
  8
Livello 1
 62
   251
420
  5723990
370
     9
100
AcDbVertex
100
AcDb2dVertex
 10
4.790651542737478
 20
48.56864393927385
 30
0.0
  0
VERTEX
  5
A2
330
98
100
AcDbEntity
  8
Livello 1
 62
   251
420
  5723990
370
     9
100
AcDbVertex
100
AcDb2dVertex
 10
4.769484728044656
 20
48.56864393927385
 30
0.0
  0
VERTEX
  5
A3
330
98
100
AcDbEntity
  8
Livello 1
 62
   251
420
  5723990
370
     9
100
AcDbVertex
100
AcDb2dVertex
 10
4.727856939511361
 20
48.56864393927385
 30
0.0
  0
VERTEX
  5
A4
330
98
100
AcDbEntity
  8
Livello 1
 62
   251
420
  5723990
370
     9
100
AcDbVertex
100
AcDb2dVertex
 10
4.707043381679821
 20
48.56864393927385
 30
0.0
  0
VERTEX
  5
A5
330
98
100
AcDbEntity
  8
Livello 1
 62
   251
420
  5723990
370
     9
100
AcDbVertex
100
AcDb2dVertex
 10
4.685876566986999
 20
48.56864393927385
 30
0.0
  0
VERTEX
  5
A6
330
98
100
AcDbEntity
  8
Livello 1
 62
   251
420
  5723990
370
     9
100
AcDbVertex
100
AcDb2dVertex
 10
4.685876566986999
 20
48.54747813388635
 30
0.0
  0
VERTEX
  5
A7
330
98
100
AcDbEntity
  8
Livello 1
 62
   251
420
  5723990
370
     9
100
AcDbVertex
100
AcDb2dVertex
 10
4.68940442550832
 20
48.53406917630236
 30
0.0
  0
VERTEX
  5
A8
330
98
100
AcDbEntity
  8
Livello 1
 62
   251
420
  5723990
370
     9
100
AcDbVertex
100
AcDb2dVertex
 10
4.707043381679821
 20
48.52666222100907
 30
0.0
  0
VERTEX
  5
A9
330
98
100
AcDbEntity
  8
Livello 1
 62
   251
420
  5723990
370
     9
100
AcDbVertex
100
AcDb2dVertex
 10
4.749023754204183
 20
48.52666222100907
 30
0.0
  0
SEQEND
  5
AA
330
98
100
AcDbEntity
  8
Livello 1
 62
   251
420
  5723990
370
     9
  0
POLYLINE
  5
AB
330
68
100
AcDbEntity
  8
Livello 1
 62
   251
420
  5723990
370
     9
100
AcDb2dPolyline
 66
     1
 10
0.0
 20
0.0
 30
0.0
  0
VERTEX
  5
AC
330
AB
100
AcDbEntity
  8
Livello 1
 62
   251
420
  5723990
370
     9
100
AcDbVertex
100
AcDb2dVertex
 10
5.69058786355911
 20
31.53865145848497
 30
0.0
  0
VERTEX
  5
AD
330
AB
100
AcDbEntity
  8
Livello 1
 62
   251
420
  5723990
370
     9
100
AcDbVertex
100
AcDb2dVertex
 10
5.711401084955546
 20
31.53865145848497
 30
0.0
  0
SEQEND
  5
AE
330
AB
100
AcDbEntity
  8
Livello 1
 62
   251
420
  5723990
370
     9
  0
POLYLINE
  5
AF
330
68
100
AcDbEntity
  8
Livello 1
 62
   251
420
  5723990
370
     9
100
AcDb2dPolyline
 66
     1
 10
0.0
 20
0.0
 30
0.0
  0
VERTEX
  5
B0
330
AF
100
AcDbEntity
  8
Livello 1
 62
   251
420
  5723990
370
     9
100
AcDbVertex
100
AcDb2dVertex
 10
5.69058786355911
 20
31.53865145848497
 30
0.0
  0
VERTEX
  5
B1
330
AF
100
AcDbEntity
  8
Livello 1
 62
   251
420
  5723990
370
     9
100
AcDbVertex
100
AcDb2dVertex
 10
40.10300003744604
 20
31.52595036036396
 30
0.0
  0
SEQEND
  5
B2
330
AF
100
AcDbEntity
  8
Livello 1
 62
   251
420
  5723990
370
     9
  0
POLYLINE
  5
B3
330
68
100
AcDbEntity
  8
Livello 1
 62
   251
420
  5723990
370
     9
100
AcDb2dPolyline
 66
     1
 10
0.0
 20
0.0
 30
0.0
  0
VERTEX
  5
B4
330
B3
100
AcDbEntity
  8
Livello 1
 62
   251
420
  5723990
370
     9
100
AcDbVertex
100
AcDb2dVertex
 10
39.851822970282
 20
32.09180729381625
 30
0.0
  0
VERTEX
  5
B5
330
B3
100
AcDbEntity
  8
Livello 1
 62
   251
420
  5723990
370
     9
100
AcDbVertex
100
AcDb2dVertex
 10
39.78867544662971
 20
32.09180729381625
 30
0.0
  0
SEQEND
  5
B6
330
B3
100
AcDbEntity
  8
Livello 1
 62
   251
420
  5723990
370
     9
  0
POLYLINE
  5
B7
330
68
100
AcDbEntity
  8
Livello 1
 62
   251
420
  5723990
370
     9
100
AcDb2dPolyline
 66
     1
 10
0.0
 20
0.0
 30
0.0
  0
VERTEX
  5
B8
330
B7
100
AcDbEntity
  8
Livello 1
 62
   251
420
  5723990
370
     9
100
AcDbVertex
100
AcDb2dVertex
 10
39.851822970282
 20
31.54746874974253
 30
0.0
  0
VERTEX
  5
B9
330
B7
100
AcDbEntity
  8
Livello 1
 62
   251
420
  5723990
370
     9
100
AcDbVertex
100
AcDb2dVertex
 10
39.8306571648945
 20
31.54746874974253
 30
0.0
  0
SEQEND
  5
BA
330
B7
100
AcDbEntity
  8
Livello 1
 62
   251
420
  5723990
370
     9
  0
POLYLINE
  5
BB
330
68
100
AcDbEntity
  8
Livello 1
 62
   251
420
  5723990
370
     9
100
AcDb2dPolyline
 66
     1
 10
0.0
 20
0.0
 30
0.0
  0
VERTEX
  5
BC
330
BB
100
AcDbEntity
  8
Livello 1
 62
   251
420
  5723990
370
     9
100
AcDbVertex
100
AcDb2dVertex
 10
5.756909988871442
 20
32.04135817680412
 30
0.0
  0
VERTEX
  5
BD
330
BB
100
AcDbEntity
  8
Livello 1
 62
   251
420
  5723990
370
     9
100
AcDbVertex
100
AcDb2dVertex
 10
5.756909988871442
 20
31.55981726387247
 30
0.0
  0
SEQEND
  5
BE
330
BB
100
AcDbEntity
  8
Livello 1
 62
   251
420
  5723990
370
     9
  0
POLYLINE
  5
BF
330
68
100
AcDbEntity
  8
Livello 1
 62
   251
420
  5723990
370
     9
100
AcDb2dPolyline
 66
     1
 10
0.0
 20
0.0
 30
0.0
  0
VERTEX
  5
C0
330
BF
100
AcDbEntity
  8
Livello 1
 62
   251
420
  5723990
370
     9
100
AcDbVertex
100
AcDb2dVertex
 10
39.78867544662971
 20
32.09180729381625
 30
0.0
  0
VERTEX
  5
C1
330
BF
100
AcDbEntity
  8
Livello 1
 62
   251
420
  5723990
370
     9
100
AcDbVertex
100
AcDb2dVertex
 10
39.80984125201721
 20
31.54746874974253
 30
0.0
  0
SEQEND
  5
C2
330
BF
100
AcDbEntity
  8
Livello 1
 62
   251
420
  5723990
370
     9
  0
POLYLINE
  5
C3
330
68
100
AcDbEntity
  8
Livello 1
 62
   251
420
  5723990
370
     9
100
AcDb2dPolyline
 66
     1
 10
0.0
 20
0.0
 30
0.0
  0
VERTEX
  5
C4
330
C3
100
AcDbEntity
  8
Livello 1
 62
   251
420
  5723990
370
     9
100
AcDbVertex
100
AcDb2dVertex
 10
39.78867544662971
 20
32.09180729381625
 30
0.0
  0
VERTEX
  5
C5
330
C3
100
AcDbEntity
  8
Livello 1
 62
   251
420
  5723990
370
     9
100
AcDbVertex
100
AcDb2dVertex
 10
5.756909988871442
 20
32.04135817680412
 30
0.0
  0
SEQEND
  5
C6
330
C3
100
AcDbEntity
  8
Livello 1
 62
   251
420
  5723990
370
     9
  0
POLYLINE
  5
C7
330
68
100
AcDbEntity
  8
Livello 1
 62
   251
420
  5723990
370
     9
100
AcDb2dPolyline
 66
     1
 10
0.0
 20
0.0
 30
0.0
  0
VERTEX
  5
C8
330
C7
100
AcDbEntity
  8
Livello 1
 62
   251
420
  5723990
370
     9
100
AcDbVertex
100
AcDb2dVertex
 10
5.756909988871442
 20
31.55981726387247
 30
0.0
  0
VERTEX
  5
C9
330
C7
100
AcDbEntity
  8
Livello 1
 62
   251
420
  5723990
370
     9
100
AcDbVertex
100
AcDb2dVertex
 10
5.798890361395804
 20
31.55981726387247
 30
0.0
  0
SEQEND
  5
CA
330
C7
100
AcDbEntity
  8
Livello 1
 62
   251
420
  5723990
370
     9
  0
POLYLINE
  5
CB
330
68
100
AcDbEntity
  8
Livello 1
 62
   251
420
  5723990
370
     9
100
AcDb2dPolyline
 66
     1
 10
0.0
 20
0.0
 30
0.0
  0
VERTEX
  5
CC
330
CB
100
AcDbEntity
  8
Livello 1
 62
   251
420
  5723990
370
     9
100
AcDbVertex
100
AcDb2dVertex
 10
5.798890361395804
 20
31.55981726387247
 30
0.0
  0
VERTEX
  5
CD
330
CB
100
AcDbEntity
  8
Livello 1
 62
   251
420
  5723990
370
     9
100
AcDbVertex
100
AcDb2dVertex
 10
39.8306571648945
 20
31.54746874974253
 30
0.0
  0
SEQEND
  5
CE
330
CB
100
AcDbEntity
  8
Livello 1
 62
   251
420
  5723990
370
     9
  0
POLYLINE
  5
CF
330
68
100
AcDbEntity
  8
Livello 1
 62
   251
420
  5723990
370
     9
100
AcDb2dPolyline
 66
     1
 10
0.0
 20
0.0
 30
0.0
  0
VERTEX
  5
D0
330
CF
100
AcDbEntity
  8
Livello 1
 62
   251
420
  5723990
370
     9
100
AcDbVertex
100
AcDb2dVertex
 10
39.80984125201721
 20
31.54746874974253
 30
0.0
  0
VERTEX
  5
D1
330
CF
100
AcDbEntity
  8
Livello 1
 62
   251
420
  5723990
370
     9
100
AcDbVertex
100
AcDb2dVertex
 10
39.8306571648945
 20
31.54746874974253
 30
0.0
  0
SEQEND
  5
D2
330
CF
100
AcDbEntity
  8
Livello 1
 62
   251
420
  5723990
370
     9
  0
POLYLINE
  5
D3
330
68
100
AcDbEntity
  8
Livello 1
 62
   251
420
  5723990
370
     9
100
AcDb2dPolyline
 66
     1
 10
0.0
 20
0.0
 30
0.0
  0
VERTEX
  5
D4
330
D3
100
AcDbEntity
  8
Livello 1
 62
   251
420
  5723990
370
     9
100
AcDbVertex
100
AcDb2dVertex
 10
39.80984125201721
 20
31.54746874974253
 30
0.0
  0
VERTEX
  5
D5
330
D3
100
AcDbEntity
  8
Livello 1
 62
   251
420
  5723990
370
     9
100
AcDbVertex
100
AcDb2dVertex
 10
5.756909988871442
 20
31.55981726387247
 30
0.0
  0
SEQEND
  5
D6
330
D3
100
AcDbEntity
  8
Livello 1
 62
   251
420
  5723990
370
     9
  0
POLYLINE
  5
D7
330
68
100
AcDbEntity
  8
Livello 1
 62
   251
420
  5723990
370
     9
100
AcDb2dPolyline
 66
     1
 10
0.0
 20
0.0
 30
0.0
  0
VERTEX
  5
D8
330
D7
100
AcDbEntity
  8
Livello 1
 62
   251
420
  5723990
370
     9
100
AcDbVertex
100
AcDb2dVertex
 10
5.798890361395804
 20
31.55981726387247
 30
0.0
  0
VERTEX
  5
D9
330
D7
100
AcDbEntity
  8
Livello 1
 62
   251
420
  5723990
370
     9
100
AcDbVertex
100
AcDb2dVertex
 10
5.69058786355911
 20
31.53865145848497
 30
0.0
  0
SEQEND
  5
DA
330
D7
100
AcDbEntity
  8
Livello 1
 62
   251
420
  5723990
370
     9
  0
POLYLINE
  5
DB
330
68
100
AcDbEntity
  8
Livello 1
 62
   251
420
  5723990
370
     9
100
AcDb2dPolyline
 66
     1
 10
0.0
 20
0.0
 30
0.0
  0
VERTEX
  5
DC
330
DB
100
AcDbEntity
  8
Livello 1
 62
   251
420
  5723990
370
     9
100
AcDbVertex
100
AcDb2dVertex
 10
40.10300003744604
 20
31.52595036036396
 30
0.0
  0
VERTEX
  5
DD
330
DB
100
AcDbEntity
  8
Livello 1
 62
   251
420
  5723990
370
     9
100
AcDbVertex
100
AcDb2dVertex
 10
5.69058786355911
 20
31.53865145848497
 30
0.0
  0
SEQEND
  5
DE
330
DB
100
AcDbEntity
  8
Livello 1
 62
   251
420
  5723990
370
     9
  0
POLYLINE
  5
DF
330
68
100
AcDbEntity
  8
Livello 1
 62
   251
420
  5723990
370
     9
100
AcDb2dPolyline
 66
     1
 10
0.0
 20
0.0
 30
0.0
  0
VERTEX
  5
E0
330
DF
100
AcDbEntity
  8
Livello 1
 62
   251
420
  5723990
370
     9
100
AcDbVertex
100
AcDb2dVertex
 10
39.8306571648945
 20
31.54746874974253
 30
0.0
  0
VERTEX
  5
E1
330
DF
100
AcDbEntity
  8
Livello 1
 62
   251
420
  5723990
370
     9
100
AcDbVertex
100
AcDb2dVertex
 10
40.10300003744604
 20
31.52595036036396
 30
0.0
  0
SEQEND
  5
E2
330
DF
100
AcDbEntity
  8
Livello 1
 62
   251
420
  5723990
370
     9
  0
POLYLINE
  5
E3
330
68
100
AcDbEntity
  8
Livello 1
 62
   251
420
  5723990
370
     9
100
AcDb2dPolyline
 66
     1
 10
0.0
 20
0.0
 30
0.0
  0
VERTEX
  5
E4
330
E3
100
AcDbEntity
  8
Livello 1
 62
   251
420
  5723990
370
     9
100
AcDbVertex
100
AcDb2dVertex
 10
39.8306571648945
 20
31.54746874974253
 30
0.0
  0
VERTEX
  5
E5
330
E3
100
AcDbEntity
  8
Livello 1
 62
   251
420
  5723990
370
     9
100
AcDbVertex
100
AcDb2dVertex
 10
5.798890361395804
 20
31.55981726387247
 30
0.0
  0
SEQEND
  5
E6
330
E3
100
AcDbEntity
  8
Livello 1
 62
   251
420
  5723990
370
     9
  0
POLYLINE
  5
E7
330
68
100
AcDbEntity
  8
Livello 1
 62
   251
420
  5723990
370
     9
100
AcDb2dPolyline
 66
     1
 10
0.0
 20
0.0
 30
0.0
  0
VERTEX
  5
E8
330
E7
100
AcDbEntity
  8
Livello 1
 62
   251
420
  5723990
370
     9
100
AcDbVertex
100
AcDb2dVertex
 10
39.851822970282
 20
31.54746874974253
 30
0.0
  0
VERTEX
  5
E9
330
E7
100
AcDbEntity
  8
Livello 1
 62
   251
420
  5723990
370
     9
100
AcDbVertex
100
AcDb2dVertex
 10
39.8306571648945
 20
31.54746874974253
 30
0.0
  0
SEQEND
  5
EA
330
E7
100
AcDbEntity
  8
Livello 1
 62
   251
420
  5723990
370
     9
  0
POLYLINE
  5
EB
330
68
100
AcDbEntity
  8
Livello 1
 62
   251
420
  5723990
370
     9
100
AcDb2dPolyline
 66
     1
 10
0.0
 20
0.0
 30
0.0
  0
VERTEX
  5
EC
330
EB
100
AcDbEntity
  8
Livello 1
 62
   251
420
  5723990
370
     9
100
AcDbVertex
100
AcDb2dVertex
 10
41.67250748758128
 20
32.10485828444747
 30
0.0
  0
VERTEX
  5
ED
330
EB
100
AcDbEntity
  8
Livello 1
 62
   251
420
  5723990
370
     9
100
AcDbVertex
100
AcDb2dVertex
 10
39.851822970282
 20
32.09180729381625
 30
0.0
  0
SEQEND
  5
EE
330
EB
100
AcDbEntity
  8
Livello 1
 62
   251
420
  5723990
370
     9
  0
POLYLINE
  5
EF
330
68
100
AcDbEntity
  8
Livello 1
 62
   251
420
  5723990
370
     9
100
AcDb2dPolyline
 66
     1
 10
0.0
 20
0.0
 30
0.0
  0
VERTEX
  5
F0
330
EF
100
AcDbEntity
  8
Livello 1
 62
   251
420
  5723990
370
     9
100
AcDbVertex
100
AcDb2dVertex
 10
39.851822970282
 20
31.54746874974253
 30
0.0
  0
VERTEX
  5
F1
330
EF
100
AcDbEntity
  8
Livello 1
 62
   251
420
  5723990
370
     9
100
AcDbVertex
100
AcDb2dVertex
 10
39.851822970282
 20
32.09180729381625
 30
0.0
  0
SEQEND
  5
F2
330
EF
100
AcDbEntity
  8
Livello 1
 62
   251
420
  5723990
370
     9
  0
POLYLINE
  5
F3
330
68
100
AcDbEntity
  8
Livello 1
 62
   251
420
  5723990
370
     9
100
AcDb2dPolyline
 66
     1
 10
0.0
 20
0.0
 30
0.0
  0
VERTEX
  5
F4
330
F3
100
AcDbEntity
  8
Livello 1
 62
   251
420
  5723990
370
     9
100
AcDbVertex
100
AcDb2dVertex
 10
41.67250748758128
 20
31.53900404247604
 30
0.0
  0
VERTEX
  5
F5
330
F3
100
AcDbEntity
  8
Livello 1
 62
   251
420
  5723990
370
     9
100
AcDbVertex
100
AcDb2dVertex
 10
41.67250748758128
 20
32.10485828444747
 30
0.0
  0
SEQEND
  5
F6
330
F3
100
AcDbEntity
  8
Livello 1
 62
   251
420
  5723990
370
     9
  0
POLYLINE
  5
F7
330
68
100
AcDbEntity
  8
Livello 1
 62
   251
420
  5723990
370
     9
100
AcDb2dPolyline
 66
     1
 10
0.0
 20
0.0
 30
0.0
  0
VERTEX
  5
F8
330
F7
100
AcDbEntity
  8
Livello 1
 62
   251
420
  5723990
370
     9
100
AcDbVertex
100
AcDb2dVertex
 10
41.67250748758128
 20
31.53900404247604
 30
0.0
  0
VERTEX
  5
F9
330
F7
100
AcDbEntity
  8
Livello 1
 62
   251
420
  5723990
370
     9
100
AcDbVertex
100
AcDb2dVertex
 10
39.851822970282
 20
31.54746874974253
 30
0.0
  0
SEQEND
  5
FA
330
F7
100
AcDbEntity
  8
Livello 1
 62
   251
420
  5723990
370
     9
  0
POLYLINE
  5
FB
330
68
100
AcDbEntity
  8
Livello 1
 62
   251
420
  5723990
370
     9
100
AcDb2dPolyline
 66
     1
 10
0.0
 20
0.0
 30
0.0
  0
VERTEX
  5
FC
330
FB
100
AcDbEntity
  8
Livello 1
 62
   251
420
  5723990
370
     9
100
AcDbVertex
100
AcDb2dVertex
 10
40.18696078249476
 20
31.52595036036396
 30
0.0
  0
VERTEX
  5
FD
330
FB
100
AcDbEntity
  8
Livello 1
 62
   251
420
  5723990
370
     9
100
AcDbVertex
100
AcDb2dVertex
 10
39.851822970282
 20
31.54746874974253
 30
0.0
  0
SEQEND
  5
FE
330
FB
100
AcDbEntity
  8
Livello 1
 62
   251
420
  5723990
370
     9
  0
POLYLINE
  5
FF
330
68
100
AcDbEntity
  8
Livello 1
 62
   251
420
  5723990
370
     9
100
AcDb2dPolyline
 66
     1
 10
0.0
 20
0.0
 30
0.0
  0
VERTEX
  5
100
330
FF
100
AcDbEntity
  8
Livello 1
 62
   251
420
  5723990
370
     9
100
AcDbVertex
100
AcDb2dVertex
 10
4.391660029584967
 20
31.54641099776932
 30
0.0
  0
VERTEX
  5
101
330
FF
100
AcDbEntity
  8
Livello 1
 62
   251
420
  5723990
370
     9
100
AcDbVertex
100
AcDb2dVertex
 10
4.03570697736513
 20
31.56722691064661
 30
0.0
  0
SEQEND
  5
102
330
FF
100
AcDbEntity
  8
Livello 1
 62
   251
420
  5723990
370
     9
  0
POLYLINE
  5
103
330
68
100
AcDbEntity
  8
Livello 1
 62
   251
420
  5723990
370
     9
100
AcDb2dPolyline
 66
     1
 10
0.0
 20
0.0
 30
0.0
  0
VERTEX
  5
104
330
103
100
AcDbEntity
  8
Livello 1
 62
   251
420
  5723990
370
     9
100
AcDbVertex
100
AcDb2dVertex
 10
6.070881995696703
 20
31.53865145848497
 30
0.0
  0
VERTEX
  5
105
330
103
100
AcDbEntity
  8
Livello 1
 62
   251
420
  5723990
370
     9
100
AcDbVertex
100
AcDb2dVertex
 10
4.772660002574908
 20
31.54641099776932
 30
0.0
  0
SEQEND
  5
106
330
103
100
AcDbEntity
  8
Livello 1
 62
   251
420
  5723990
370
     9
  0
POLYLINE
  5
107
330
68
100
AcDbEntity
  8
Livello 1
 62
   251
420
  5723990
370
     9
100
AcDb2dPolyline
 66
     1
 10
0.0
 20
0.0
 30
0.0
  0
VERTEX
  5
108
330
107
100
AcDbEntity
  8
Livello 1
 62
   251
420
  5723990
370
     9
100
AcDbVertex
100
AcDb2dVertex
 10
5.736096094604795
 20
32.04135817680412
 30
0.0
  0
VERTEX
  5
109
330
107
100
AcDbEntity
  8
Livello 1
 62
   251
420
  5723990
370
     9
100
AcDbVertex
100
AcDb2dVertex
 10
4.03570697736513
 20
32.02830718617288
 30
0.0
  0
SEQEND
  5
10A
330
107
100
AcDbEntity
  8
Livello 1
 62
   251
420
  5723990
370
     9
  0
POLYLINE
  5
10B
330
68
100
AcDbEntity
  8
Livello 1
 62
   251
420
  5723990
370
     9
100
AcDb2dPolyline
 66
     1
 10
0.0
 20
0.0
 30
0.0
  0
VERTEX
  5
10C
330
10B
100
AcDbEntity
  8
Livello 1
 62
   251
420
  5723990
370
     9
100
AcDbVertex
100
AcDb2dVertex
 10
4.03570697736513
 20
31.56722691064661
 30
0.0
  0
VERTEX
  5
10D
330
10B
100
AcDbEntity
  8
Livello 1
 62
   251
420
  5723990
370
     9
100
AcDbVertex
100
AcDb2dVertex
 10
4.03570697736513
 20
32.02830718617288
 30
0.0
  0
SEQEND
  5
10E
330
10B
100
AcDbEntity
  8
Livello 1
 62
   251
420
  5723990
370
     9
  0
POLYLINE
  5
10F
330
68
100
AcDbEntity
  8
Livello 1
 62
   251
420
  5723990
370
     9
100
AcDb2dPolyline
 66
     1
 10
0.0
 20
0.0
 30
0.0
  0
VERTEX
  5
110
330
10F
100
AcDbEntity
  8
Livello 1
 62
   251
420
  5723990
370
     9
100
AcDbVertex
100
AcDb2dVertex
 10
5.714928943476867
 20
31.55981726387247
 30
0.0
  0
VERTEX
  5
111
330
10F
100
AcDbEntity
  8
Livello 1
 62
   251
420
  5723990
370
     9
100
AcDbVertex
100
AcDb2dVertex
 10
4.03570697736513
 20
31.56722691064661
 30
0.0
  0
SEQEND
  5
112
330
10F
100
AcDbEntity
  8
Livello 1
 62
   251
420
  5723990
370
     9
  0
POLYLINE
  5
113
330
68
100
AcDbEntity
  8
Livello 1
 62
   251
420
  5723990
370
     9
100
AcDb2dPolyline
 66
     1
 10
0.0
 20
0.0
 30
0.0
  0
VERTEX
  5
114
330
113
100
AcDbEntity
  8
Livello 1
 62
   251
420
  5723990
370
     9
100
AcDbVertex
100
AcDb2dVertex
 10
5.714928943476867
 20
31.55981726387247
 30
0.0
  0
VERTEX
  5
115
330
113
100
AcDbEntity
  8
Livello 1
 62
   251
420
  5723990
370
     9
100
AcDbVertex
100
AcDb2dVertex
 10
5.736096094604795
 20
32.04135817680412
 30
0.0
  0
SEQEND
  5
116
330
113
100
AcDbEntity
  8
Livello 1
 62
   251
420
  5723990
370
     9
  0
POLYLINE
  5
117
330
68
100
AcDbEntity
  8
Livello 1
 62
   251
420
  5723990
370
     9
100
AcDb2dPolyline
 66
     1
 10
0.0
 20
0.0
 30
0.0
  0
VERTEX
  5
118
330
117
100
AcDbEntity
  8
Livello 1
 62
   251
420
  5723990
370
     9
100
AcDbVertex
100
AcDb2dVertex
 10
5.69058786355911
 20
31.53865145848497
 30
0.0
  0
VERTEX
  5
119
330
117
100
AcDbEntity
  8
Livello 1
 62
   251
420
  5723990
370
     9
100
AcDbVertex
100
AcDb2dVertex
 10
5.714928943476867
 20
31.55981726387247
 30
0.0
  0
SEQEND
  5
11A
330
117
100
AcDbEntity
  8
Livello 1
 62
   251
420
  5723990
370
     9
  0
POLYLINE
  5
11B
330
68
100
AcDbEntity
  8
Livello 1
 62
   251
420
  5723990
370
     9
100
AcDb2dPolyline
 66
     1
 10
0.0
 20
0.0
 30
0.0
  0
VERTEX
  5
11C
330
11B
100
AcDbEntity
  8
Livello 1
 62
   251
420
  5723990
370
     9
100
AcDbVertex
100
AcDb2dVertex
 10
5.736096094604795
 20
32.04135817680412
 30
0.0
  0
VERTEX
  5
11D
330
11B
100
AcDbEntity
  8
Livello 1
 62
   251
420
  5723990
370
     9
100
AcDbVertex
100
AcDb2dVertex
 10
5.756909988871442
 20
32.04135817680412
 30
0.0
  0
SEQEND
  5
11E
330
11B
100
AcDbEntity
  8
Livello 1
 62
   251
420
  5723990
370
     9
  0
POLYLINE
  5
11F
330
68
100
AcDbEntity
  8
Livello 1
 62
   251
420
  5723990
370
     9
100
AcDb2dPolyline
 66
     1
 10
0.0
 20
0.0
 30
0.0
  0
VERTEX
  5
120
330
11F
100
AcDbEntity
  8
Livello 1
 62
   251
420
  5723990
370
     9
100
AcDbVertex
100
AcDb2dVertex
 10
38.2512692885668
 20
47.66905952957308
 30
0.0
  0
VERTEX
  5
121
330
11F
100
AcDbEntity
  8
Livello 1
 62
   251
420
  5723990
370
     9
100
AcDbVertex
100
AcDb2dVertex
 10
38.27243778543514
 20
47.66905952957308
 30
0.0
  0
SEQEND
  5
122
330
11F
100
AcDbEntity
  8
Livello 1
 62
   251
420
  5723990
370
     9
  0
POLYLINE
  5
123
330
68
100
AcDbEntity
  8
Livello 1
 62
   251
420
  5723990
370
     9
100
AcDb2dPolyline
 66
     1
 10
0.0
 20
0.0
 30
0.0
  0
VERTEX
  5
124
330
123
100
AcDbEntity
  8
Livello 1
 62
   251
420
  5723990
370
     9
100
AcDbVertex
100
AcDb2dVertex
 10
38.27243778543514
 20
47.62743308678021
 30
0.0
  0
VERTEX
  5
125
330
123
100
AcDbEntity
  8
Livello 1
 62
   251
420
  5723990
370
     9
100
AcDbVertex
100
AcDb2dVertex
 10
38.29325100683158
 20
47.62743308678021
 30
0.0
  0
VERTEX
  5
126
330
123
100
AcDbEntity
  8
Livello 1
 62
   251
420
  5723990
370
     9
100
AcDbVertex
100
AcDb2dVertex
 10
38.31406422822802
 20
47.62743308678021
 30
0.0
  0
SEQEND
  5
127
330
123
100
AcDbEntity
  8
Livello 1
 62
   251
420
  5723990
370
     9
  0
POLYLINE
  5
128
330
68
100
AcDbEntity
  8
Livello 1
 62
   251
420
  5723990
370
     9
100
AcDb2dPolyline
 66
     1
 10
0.0
 20
0.0
 30
0.0
  0
VERTEX
  5
129
330
128
100
AcDbEntity
  8
Livello 1
 62
   251
420
  5723990
370
     9
100
AcDbVertex
100
AcDb2dVertex
 10
4.685876566986999
 20
48.61027038206673
 30
0.0
  0
VERTEX
  5
12A
330
128
100
AcDbEntity
  8
Livello 1
 62
   251
420
  5723990
370
     9
100
AcDbVertex
100
AcDb2dVertex
 10
4.685876566986999
 20
48.58910457667923
 30
0.0
  0
SEQEND
  5
12B
330
128
100
AcDbEntity
  8
Livello 1
 62
   251
420
  5723990
370
     9
  0
POLYLINE
  5
12C
330
68
100
AcDbEntity
  8
Livello 1
 62
   251
420
  5723990
370
     9
100
AcDb2dPolyline
 66
     1
 10
0.0
 20
0.0
 30
0.0
  0
VERTEX
  5
12D
330
12C
100
AcDbEntity
  8
Livello 1
 62
   251
420
  5723990
370
     9
100
AcDbVertex
100
AcDb2dVertex
 10
4.707043381679821
 20
49.133795704744
 30
0.0
  0
VERTEX
  5
12E
330
12C
100
AcDbEntity
  8
Livello 1
 62
   251
420
  5723990
370
     9
100
AcDbVertex
100
AcDb2dVertex
 10
4.707043381679821
 20
49.133795704744
 30
0.0
  0
VERTEX
  5
12F
330
12C
100
AcDbEntity
  8
Livello 1
 62
   251
420
  5723990
370
     9
100
AcDbVertex
100
AcDb2dVertex
 10
4.707043381679821
 20
49.1126245163948
 30
0.0
  0
SEQEND
  5
130
330
12C
100
AcDbEntity
  8
Livello 1
 62
   251
420
  5723990
370
     9
  0
POLYLINE
  5
131
330
68
100
AcDbEntity
  8
Livello 1
 62
   251
420
  5723990
370
     9
100
AcDb2dPolyline
 66
     1
 10
0.0
 20
0.0
 30
0.0
  0
VERTEX
  5
132
330
131
100
AcDbEntity
  8
Livello 1
 62
   251
420
  5723990
370
     9
100
AcDbVertex
100
AcDb2dVertex
 10
4.707043381679821
 20
49.133795704744
 30
0.0
  0
VERTEX
  5
133
330
131
100
AcDbEntity
  8
Livello 1
 62
   251
420
  5723990
370
     9
100
AcDbVertex
100
AcDb2dVertex
 10
4.707043381679821
 20
48.61027038206673
 30
0.0
  0
SEQEND
  5
134
330
131
100
AcDbEntity
  8
Livello 1
 62
   251
420
  5723990
370
     9
  0
POLYLINE
  5
135
330
68
100
AcDbEntity
  8
Livello 1
 62
   251
420
  5723990
370
     9
100
AcDb2dPolyline
 66
     1
 10
0.0
 20
0.0
 30
0.0
  0
VERTEX
  5
136
330
135
100
AcDbEntity
  8
Livello 1
 62
   251
420
  5723990
370
     9
100
AcDbVertex
100
AcDb2dVertex
 10
4.707043381679821
 20
48.61027038206673
 30
0.0
  0
VERTEX
  5
137
330
135
100
AcDbEntity
  8
Livello 1
 62
   251
420
  5723990
370
     9
100
AcDbVertex
100
AcDb2dVertex
 10
4.707043381679821
 20
48.61027038206673
 30
0.0
  0
VERTEX
  5
138
330
135
100
AcDbEntity
  8
Livello 1
 62
   251
420
  5723990
370
     9
100
AcDbVertex
100
AcDb2dVertex
 10
4.728915364354779
 20
48.62579484359713
 30
0.0
  0
VERTEX
  5
139
330
135
100
AcDbEntity
  8
Livello 1
 62
   251
420
  5723990
370
     9
100
AcDbVertex
100
AcDb2dVertex
 10
4.769484728044656
 20
48.63143618745423
 30
0.0
  0
VERTEX
  5
13A
330
135
100
AcDbEntity
  8
Livello 1
 62
   251
420
  5723990
370
     9
100
AcDbVertex
100
AcDb2dVertex
 10
4.790651542737478
 20
48.63143618745423
 30
0.0
  0
VERTEX
  5
13B
330
135
100
AcDbEntity
  8
Livello 1
 62
   251
420
  5723990
370
     9
100
AcDbVertex
100
AcDb2dVertex
 10
4.832632251696946
 20
48.63143618745423
 30
0.0
  0
VERTEX
  5
13C
330
135
100
AcDbEntity
  8
Livello 1
 62
   251
420
  5723990
370
     9
100
AcDbVertex
100
AcDb2dVertex
 10
4.87426004023024
 20
48.63143618745423
 30
0.0
  0
VERTEX
  5
13D
330
135
100
AcDbEntity
  8
Livello 1
 62
   251
420
  5723990
370
     9
100
AcDbVertex
100
AcDb2dVertex
 10
4.908832111720892
 20
48.62861551552568
 30
0.0
  0
VERTEX
  5
13E
330
135
100
AcDbEntity
  8
Livello 1
 62
   251
420
  5723990
370
     9
100
AcDbVertex
100
AcDb2dVertex
 10
4.93705430702125
 20
48.61027038206673
 30
0.0
  0
VERTEX
  5
13F
330
135
100
AcDbEntity
  8
Livello 1
 62
   251
420
  5723990
370
     9
100
AcDbVertex
100
AcDb2dVertex
 10
4.958221121714072
 20
48.61027038206673
 30
0.0
  0
VERTEX
  5
140
330
135
100
AcDbEntity
  8
Livello 1
 62
   251
420
  5723990
370
     9
100
AcDbVertex
100
AcDb2dVertex
 10
4.979035015980719
 20
48.58910457667923
 30
0.0
  0
SEQEND
  5
141
330
135
100
AcDbEntity
  8
Livello 1
 62
   251
420
  5723990
370
     9
  0
POLYLINE
  5
142
330
68
100
AcDbEntity
  8
Livello 1
 62
   251
420
  5723990
370
     9
100
AcDb2dPolyline
 66
     1
 10
0.0
 20
0.0
 30
0.0
  0
VERTEX
  5
143
330
142
100
AcDbEntity
  8
Livello 1
 62
   251
420
  5723990
370
     9
100
AcDbVertex
100
AcDb2dVertex
 10
5.736096094604795
 20
32.02019237141661
 30
0.0
  0
VERTEX
  5
144
330
142
100
AcDbEntity
  8
Livello 1
 62
   251
420
  5723990
370
     9
100
AcDbVertex
100
AcDb2dVertex
 10
5.756909988871442
 20
32.02019237141661
 30
0.0
  0
SEQEND
  5
145
330
142
100
AcDbEntity
  8
Livello 1
 62
   251
420
  5723990
370
     9
  0
POLYLINE
  5
146
330
68
100
AcDbEntity
  8
Livello 1
 62
   251
420
  5723990
370
     9
100
AcDb2dPolyline
 66
     1
 10
0.0
 20
0.0
 30
0.0
  0
VERTEX
  5
147
330
146
100
AcDbEntity
  8
Livello 1
 62
   251
420
  5723990
370
     9
100
AcDbVertex
100
AcDb2dVertex
 10
5.736096094604795
 20
32.02019237141661
 30
0.0
  0
VERTEX
  5
148
330
146
100
AcDbEntity
  8
Livello 1
 62
   251
420
  5723990
370
     9
100
AcDbVertex
100
AcDb2dVertex
 10
5.736096094604795
 20
31.58063048526891
 30
0.0
  0
SEQEND
  5
149
330
146
100
AcDbEntity
  8
Livello 1
 62
   251
420
  5723990
370
     9
  0
POLYLINE
  5
14A
330
68
100
AcDbEntity
  8
Livello 1
 62
   251
420
  5723990
370
     9
100
AcDb2dPolyline
 66
     1
 10
0.0
 20
0.0
 30
0.0
  0
VERTEX
  5
14B
330
14A
100
AcDbEntity
  8
Livello 1
 62
   251
420
  5723990
370
     9
100
AcDbVertex
100
AcDb2dVertex
 10
5.736096094604795
 20
31.58063048526891
 30
0.0
  0
VERTEX
  5
14C
330
14A
100
AcDbEntity
  8
Livello 1
 62
   251
420
  5723990
370
     9
100
AcDbVertex
100
AcDb2dVertex
 10
5.756909988871442
 20
31.58063048526891
 30
0.0
  0
SEQEND
  5
14D
330
14A
100
AcDbEntity
  8
Livello 1
 62
   251
420
  5723990
370
     9
  0
POLYLINE
  5
14E
330
68
100
AcDbEntity
  8
Livello 1
 62
   251
420
  5723990
370
     9
100
AcDb2dPolyline
 66
     1
 10
0.0
 20
0.0
 30
0.0
  0
VERTEX
  5
14F
330
14E
100
AcDbEntity
  8
Livello 1
 62
   251
420
  5723990
370
     9
100
AcDbVertex
100
AcDb2dVertex
 10
5.736096094604795
 20
31.58063048526891
 30
0.0
  0
VERTEX
  5
150
330
14E
100
AcDbEntity
  8
Livello 1
 62
   251
420
  5723990
370
     9
100
AcDbVertex
100
AcDb2dVertex
 10
5.756909988871442
 20
31.58063048526891
 30
0.0
  0
SEQEND
  5
151
330
14E
100
AcDbEntity
  8
Livello 1
 62
   251
420
  5723990
370
     9
  0
POLYLINE
  5
152
330
68
100
AcDbEntity
  8
Livello 1
 62
   251
420
  5723990
370
     9
100
AcDb2dPolyline
 66
     1
 10
0.0
 20
0.0
 30
0.0
  0
VERTEX
  5
153
330
152
100
AcDbEntity
  8
Livello 1
 62
   251
420
  5723990
370
     9
100
AcDbVertex
100
AcDb2dVertex
 10
39.8306571648945
 20
31.56793207862874
 30
0.0
  0
VERTEX
  5
154
330
152
100
AcDbEntity
  8
Livello 1
 62
   251
420
  5723990
370
     9
100
AcDbVertex
100
AcDb2dVertex
 10
39.8306571648945
 20
32.07099138093896
 30
0.0
  0
SEQEND
  5
155
330
152
100
AcDbEntity
  8
Livello 1
 62
   251
420
  5723990
370
     9
  0
POLYLINE
  5
156
330
68
100
AcDbEntity
  8
Livello 1
 62
   251
420
  5723990
370
     9
100
AcDb2dPolyline
 66
     1
 10
0.0
 20
0.0
 30
0.0
  0
VERTEX
  5
157
330
156
100
AcDbEntity
  8
Livello 1
 62
   251
420
  5723990
370
     9
100
AcDbVertex
100
AcDb2dVertex
 10
39.851822970282
 20
32.07099138093896
 30
0.0
  0
VERTEX
  5
158
330
156
100
AcDbEntity
  8
Livello 1
 62
   251
420
  5723990
370
     9
100
AcDbVertex
100
AcDb2dVertex
 10
39.8306571648945
 20
32.07099138093896
 30
0.0
  0
SEQEND
  5
159
330
156
100
AcDbEntity
  8
Livello 1
 62
   251
420
  5723990
370
     9
  0
POLYLINE
  5
15A
330
68
100
AcDbEntity
  8
Livello 1
 62
   251
420
  5723990
370
     9
100
AcDb2dPolyline
 66
     1
 10
0.0
 20
0.0
 30
0.0
  0
VERTEX
  5
15B
330
15A
100
AcDbEntity
  8
Livello 1
 62
   251
420
  5723990
370
     9
100
AcDbVertex
100
AcDb2dVertex
 10
39.851822970282
 20
31.56793207862874
 30
0.0
  0
VERTEX
  5
15C
330
15A
100
AcDbEntity
  8
Livello 1
 62
   251
420
  5723990
370
     9
100
AcDbVertex
100
AcDb2dVertex
 10
39.8306571648945
 20
31.56793207862874
 30
0.0
  0
SEQEND
  5
15D
330
15A
100
AcDbEntity
  8
Livello 1
 62
   251
420
  5723990
370
     9
  0
POLYLINE
  5
15E
330
68
100
AcDbEntity
  8
Livello 1
 62
   251
420
  5723990
370
     9
100
AcDb2dPolyline
 66
     1
 10
0.0
 20
0.0
 30
0.0
  0
VERTEX
  5
15F
330
15E
100
AcDbEntity
  8
Livello 1
 62
   251
420
  5723990
370
     9
100
AcDbVertex
100
AcDb2dVertex
 10
39.851822970282
 20
31.56793207862874
 30
0.0
  0
VERTEX
  5
160
330
15E
100
AcDbEntity
  8
Livello 1
 62
   251
420
  5723990
370
     9
100
AcDbVertex
100
AcDb2dVertex
 10
39.8306571648945
 20
31.56793207862874
 30
0.0
  0
SEQEND
  5
161
330
15E
100
AcDbEntity
  8
Livello 1
 62
   251
420
  5723990
370
     9
  0
POLYLINE
  5
162
330
68
100
AcDbEntity
  8
Livello 1
 62
   251
420
  5723990
370
     9
100
AcDb2dPolyline
 66
     1
 10
0.0
 20
0.0
 30
0.0
  0
VERTEX
  5
163
330
162
100
AcDbEntity
  8
Livello 1
 62
   251
420
  5723990
370
     9
100
AcDbVertex
100
AcDb2dVertex
 10
39.80984125201721
 20
31.56793207862874
 30
0.0
  0
VERTEX
  5
164
330
162
100
AcDbEntity
  8
Livello 1
 62
   251
420
  5723990
370
     9
100
AcDbVertex
100
AcDb2dVertex
 10
39.851822970282
 20
31.56793207862874
 30
0.0
  0
SEQEND
  5
165
330
162
100
AcDbEntity
  8
Livello 1
 62
   251
420
  5723990
370
     9
  0
POLYLINE
  5
166
330
68
100
AcDbEntity
  8
Livello 1
 62
   251
420
  5723990
370
     9
100
AcDb2dPolyline
 66
     1
 10
0.0
 20
0.0
 30
0.0
  0
VERTEX
  5
167
330
166
100
AcDbEntity
  8
Livello 1
 62
   251
420
  5723990
370
     9
100
AcDbVertex
100
AcDb2dVertex
 10
39.8306571648945
 20
31.56793207862874
 30
0.0
  0
VERTEX
  5
168
330
166
100
AcDbEntity
  8
Livello 1
 62
   251
420
  5723990
370
     9
100
AcDbVertex
100
AcDb2dVertex
 10
39.851822970282
 20
31.56793207862874
 30
0.0
  0
SEQEND
  5
169
330
166
100
AcDbEntity
  8
Livello 1
 62
   251
420
  5723990
370
     9
  0
POLYLINE
  5
16A
330
68
100
AcDbEntity
  8
Livello 1
 62
   251
420
  5723990
370
     9
100
AcDb2dPolyline
 66
     1
 10
0.0
 20
0.0
 30
0.0
  0
VERTEX
  5
16B
330
16A
100
AcDbEntity
  8
Livello 1
 62
   251
420
  5723990
370
     9
100
AcDbVertex
100
AcDb2dVertex
 10
39.8306571648945
 20
32.07099138093896
 30
0.0
  0
VERTEX
  5
16C
330
16A
100
AcDbEntity
  8
Livello 1
 62
   251
420
  5723990
370
     9
100
AcDbVertex
100
AcDb2dVertex
 10
39.8306571648945
 20
31.56793207862874
 30
0.0
  0
SEQEND
  5
16D
330
16A
100
AcDbEntity
  8
Livello 1
 62
   251
420
  5723990
370
     9
  0
POLYLINE
  5
16E
330
68
100
AcDbEntity
  8
Livello 1
 62
   251
420
  5723990
370
     9
100
AcDb2dPolyline
 66
     1
 10
0.0
 20
0.0
 30
0.0
  0
VERTEX
  5
16F
330
16E
100
AcDbEntity
  8
Livello 1
 62
   251
420
  5723990
370
     9
100
AcDbVertex
100
AcDb2dVertex
 10
39.80984125201721
 20
32.07099138093896
 30
0.0
  0
VERTEX
  5
170
330
16E
100
AcDbEntity
  8
Livello 1
 62
   251
420
  5723990
370
     9
100
AcDbVertex
100
AcDb2dVertex
 10
39.8306571648945
 20
32.07099138093896
 30
0.0
  0
SEQEND
  5
171
330
16E
100
AcDbEntity
  8
Livello 1
 62
   251
420
  5723990
370
     9
  0
POLYLINE
  5
172
330
68
100
AcDbEntity
  8
Livello 1
 62
   251
420
  5723990
370
     9
100
AcDb2dPolyline
 66
     1
 10
0.0
 20
0.0
 30
0.0
  0
VERTEX
  5
173
330
172
100
AcDbEntity
  8
Livello 1
 62
   251
420
  5723990
370
     9
100
AcDbVertex
100
AcDb2dVertex
 10
39.80984125201721
 20
32.07099138093896
 30
0.0
  0
VERTEX
  5
174
330
172
100
AcDbEntity
  8
Livello 1
 62
   251
420
  5723990
370
     9
100
AcDbVertex
100
AcDb2dVertex
 10
39.80984125201721
 20
31.56793207862874
 30
0.0
  0
SEQEND
  5
175
330
172
100
AcDbEntity
  8
Livello 1
 62
   251
420
  5723990
370
     9
  0
POLYLINE
  5
176
330
68
100
AcDbEntity
  8
Livello 1
 62
   251
420
  5723990
370
     9
100
AcDb2dPolyline
 66
     1
 10
0.0
 20
0.0
 30
0.0
  0
VERTEX
  5
177
330
176
100
AcDbEntity
  8
Livello 1
 62
   251
420
  5723990
370
     9
100
AcDbVertex
100
AcDb2dVertex
 10
39.80984125201721
 20
31.56793207862874
 30
0.0
  0
VERTEX
  5
178
330
176
100
AcDbEntity
  8
Livello 1
 62
   251
420
  5723990
370
     9
100
AcDbVertex
100
AcDb2dVertex
 10
39.8306571648945
 20
31.56793207862874
 30
0.0
  0
SEQEND
  5
179
330
176
100
AcDbEntity
  8
Livello 1
 62
   251
420
  5723990
370
     9
  0
POLYLINE
  5
17A
330
68
100
AcDbEntity
  8
Livello 1
 62
   251
420
  5723990
370
     9
100
AcDb2dPolyline
 66
     1
 10
0.0
 20
0.0
 30
0.0
  0
VERTEX
  5
17B
330
17A
100
AcDbEntity
  8
Livello 1
 62
   251
420
  5723990
370
     9
100
AcDbVertex
100
AcDb2dVertex
 10
4.749023754204183
 20
48.54747813388635
 30
0.0
  0
VERTEX
  5
17C
330
17A
100
AcDbEntity
  8
Livello 1
 62
   251
420
  5723990
370
     9
100
AcDbVertex
100
AcDb2dVertex
 10
4.749023754204183
 20
48.31711428811875
 30
0.0
  0
SEQEND
  5
17D
330
17A
100
AcDbEntity
  8
Livello 1
 62
   251
420
  5723990
370
     9
  0
POLYLINE
  5
17E
330
68
100
AcDbEntity
  8
Livello 1
 62
   251
420
  5723990
370
     9
100
AcDb2dPolyline
 66
     1
 10
0.0
 20
0.0
 30
0.0
  0
VERTEX
  5
17F
330
17E
100
AcDbEntity
  8
Livello 1
 62
   251
420
  5723990
370
     9
100
AcDbVertex
100
AcDb2dVertex
 10
4.895426518487956
 20
48.31711428811875
 30
0.0
  0
VERTEX
  5
180
330
17E
100
AcDbEntity
  8
Livello 1
 62
   251
420
  5723990
370
     9
100
AcDbVertex
100
AcDb2dVertex
 10
4.895426518487956
 20
48.54747813388635
 30
0.0
  0
SEQEND
  5
181
330
17E
100
AcDbEntity
  8
Livello 1
 62
   251
420
  5723990
370
     9
  0
POLYLINE
  5
182
330
68
100
AcDbEntity
  8
Livello 1
 62
   251
420
  5723990
370
     9
100
AcDb2dPolyline
 66
     1
 10
0.0
 20
0.0
 30
0.0
  0
VERTEX
  5
183
330
182
100
AcDbEntity
  8
Livello 1
 62
   251
420
  5723990
370
     9
100
AcDbVertex
100
AcDb2dVertex
 10
4.832632251696946
 20
48.29594848273125
 30
0.0
  0
VERTEX
  5
184
330
182
100
AcDbEntity
  8
Livello 1
 62
   251
420
  5723990
370
     9
100
AcDbVertex
100
AcDb2dVertex
 10
4.853798729954661
 20
48.29594848273125
 30
0.0
  0
VERTEX
  5
185
330
182
100
AcDbEntity
  8
Livello 1
 62
   251
420
  5723990
370
     9
100
AcDbVertex
100
AcDb2dVertex
 10
4.87426004023024
 20
48.29594848273125
 30
0.0
  0
VERTEX
  5
186
330
182
100
AcDbEntity
  8
Livello 1
 62
   251
420
  5723990
370
     9
100
AcDbVertex
100
AcDb2dVertex
 10
4.889429226288731
 20
48.29841387918788
 30
0.0
  0
VERTEX
  5
187
330
182
100
AcDbEntity
  8
Livello 1
 62
   251
420
  5723990
370
     9
100
AcDbVertex
100
AcDb2dVertex
 10
4.895426518487956
 20
48.31711428811875
 30
0.0
  0
SEQEND
  5
188
330
182
100
AcDbEntity
  8
Livello 1
 62
   251
420
  5723990
370
     9
  0
POLYLINE
  5
189
330
68
100
AcDbEntity
  8
Livello 1
 62
   251
420
  5723990
370
     9
100
AcDb2dPolyline
 66
     1
 10
0.0
 20
0.0
 30
0.0
  0
VERTEX
  5
18A
330
189
100
AcDbEntity
  8
Livello 1
 62
   251
420
  5723990
370
     9
100
AcDbVertex
100
AcDb2dVertex
 10
4.749023754204183
 20
48.31711428811875
 30
0.0
  0
VERTEX
  5
18B
330
189
100
AcDbEntity
  8
Livello 1
 62
   251
420
  5723990
370
     9
100
AcDbVertex
100
AcDb2dVertex
 10
4.749023754204183
 20
48.31711428811875
 30
0.0
  0
VERTEX
  5
18C
330
189
100
AcDbEntity
  8
Livello 1
 62
   251
420
  5723990
370
     9
100
AcDbVertex
100
AcDb2dVertex
 10
4.774423931835569
 20
48.30158982658834
 30
0.0
  0
VERTEX
  5
18D
330
189
100
AcDbEntity
  8
Livello 1
 62
   251
420
  5723990
370
     9
100
AcDbVertex
100
AcDb2dVertex
 10
4.811818357430299
 20
48.29594848273125
 30
0.0
  0
SEQEND
  5
18E
330
189
100
AcDbEntity
  8
Livello 1
 62
   251
420
  5723990
370
     9
  0
POLYLINE
  5
18F
330
68
100
AcDbEntity
  8
Livello 1
 62
   251
420
  5723990
370
     9
100
AcDb2dPolyline
 66
     1
 10
0.0
 20
0.0
 30
0.0
  0
VERTEX
  5
190
330
18F
100
AcDbEntity
  8
Livello 1
 62
   251
420
  5723990
370
     9
100
AcDbVertex
100
AcDb2dVertex
 10
4.685876566986999
 20
48.58910457667923
 30
0.0
  0
VERTEX
  5
191
330
18F
100
AcDbEntity
  8
Livello 1
 62
   251
420
  5723990
370
     9
100
AcDbVertex
100
AcDb2dVertex
 10
4.685876566986999
 20
48.54747813388635
 30
0.0
  0
SEQEND
  5
192
330
18F
100
AcDbEntity
  8
Livello 1
 62
   251
420
  5723990
370
     9
  0
POLYLINE
  5
193
330
68
100
AcDbEntity
  8
Livello 1
 62
   251
420
  5723990
370
     9
100
AcDb2dPolyline
 66
     1
 10
0.0
 20
0.0
 30
0.0
  0
VERTEX
  5
194
330
193
100
AcDbEntity
  8
Livello 1
 62
   251
420
  5723990
370
     9
100
AcDbVertex
100
AcDb2dVertex
 10
4.958221121714072
 20
48.54747813388635
 30
0.0
  0
VERTEX
  5
195
330
193
100
AcDbEntity
  8
Livello 1
 62
   251
420
  5723990
370
     9
100
AcDbVertex
100
AcDb2dVertex
 10
4.979035015980719
 20
48.58910457667923
 30
0.0
  0
SEQEND
  5
196
330
193
100
AcDbEntity
  8
Livello 1
 62
   251
420
  5723990
370
     9
  0
POLYLINE
  5
197
330
68
100
AcDbEntity
  8
Livello 1
 62
   251
420
  5723990
370
     9
100
AcDb2dPolyline
 66
     1
 10
0.0
 20
0.0
 30
0.0
  0
VERTEX
  5
198
330
197
100
AcDbEntity
  8
Livello 1
 62
   251
420
  5723990
370
     9
100
AcDbVertex
100
AcDb2dVertex
 10
40.71048341369119
 20
48.21904210898474
 30
0.0
  0
VERTEX
  5
199
330
197
100
AcDbEntity
  8
Livello 1
 62
   251
420
  5723990
370
     9
100
AcDbVertex
100
AcDb2dVertex
 10
40.83642587700471
 20
32.1598909933435
 30
0.0
  0
SEQEND
  5
19A
330
197
100
AcDbEntity
  8
Livello 1
 62
   251
420
  5723990
370
     9
  0
POLYLINE
  5
19B
330
68
100
AcDbEntity
  8
Livello 1
 62
   251
420
  5723990
370
     9
100
AcDb2dPolyline
 66
     1
 10
0.0
 20
0.0
 30
0.0
  0
VERTEX
  5
19C
330
19B
100
AcDbEntity
  8
Livello 1
 62
   251
420
  5723990
370
     9
100
AcDbVertex
100
AcDb2dVertex
 10
40.98247639373252
 20
32.16659547213549
 30
0.0
  0
VERTEX
  5
19D
330
19B
100
AcDbEntity
  8
Livello 1
 62
   251
420
  5723990
370
     9
100
AcDbVertex
100
AcDb2dVertex
 10
40.85723909840114
 20
48.21904210898474
 30
0.0
  0
SEQEND
  5
19E
330
19B
100
AcDbEntity
  8
Livello 1
 62
   251
420
  5723990
370
     9
  0
POLYLINE
  5
19F
330
68
100
AcDbEntity
  8
Livello 1
 62
   251
420
  5723990
370
     9
100
AcDb2dPolyline
 66
     1
 10
0.0
 20
0.0
 30
0.0
  0
VERTEX
  5
1A0
330
19F
100
AcDbEntity
  8
Livello 1
 62
   251
420
  5723990
370
     9
100
AcDbVertex
100
AcDb2dVertex
 10
4.811818357430299
 20
48.31711428811875
 30
0.0
  0
VERTEX
  5
1A1
330
19F
100
AcDbEntity
  8
Livello 1
 62
   251
420
  5723990
370
     9
100
AcDbVertex
100
AcDb2dVertex
 10
4.852740305111245
 20
32.02019237141661
 30
0.0
  0
SEQEND
  5
1A2
330
19F
100
AcDbEntity
  8
Livello 1
 62
   251
420
  5723990
370
     9
  0
POLYLINE
  5
1A3
330
68
100
AcDbEntity
  8
Livello 1
 62
   251
420
  5723990
370
     9
100
AcDb2dPolyline
 66
     1
 10
0.0
 20
0.0
 30
0.0
  0
VERTEX
  5
1A4
330
1A3
100
AcDbEntity
  8
Livello 1
 62
   251
420
  5723990
370
     9
100
AcDbVertex
100
AcDb2dVertex
 10
4.873907119804065
 20
32.02019237141661
 30
0.0
  0
VERTEX
  5
1A5
330
1A3
100
AcDbEntity
  8
Livello 1
 62
   251
420
  5723990
370
     9
100
AcDbVertex
100
AcDb2dVertex
 10
4.832632251696946
 20
48.31711428811875
 30
0.0
  0
SEQEND
  5
1A6
330
1A3
100
AcDbEntity
  8
Livello 1
 62
   251
420
  5723990
370
     9
  0
POLYLINE
  5
1A7
330
68
100
AcDbEntity
  8
Livello 1
 62
   251
420
  5723990
370
     9
100
AcDb2dPolyline
 66
     1
 10
0.0
 20
0.0
 30
0.0
  0
VERTEX
  5
1A8
330
1A7
100
AcDbEntity
  8
Livello 1
 62
   251
420
  5723990
370
     9
100
AcDbVertex
100
AcDb2dVertex
 10
4.707043381679821
 20
49.1126245163948
 30
0.0
  0
VERTEX
  5
1A9
330
1A7
100
AcDbEntity
  8
Livello 1
 62
   251
420
  5723990
370
     9
100
AcDbVertex
100
AcDb2dVertex
 10
4.685876566986999
 20
48.61027038206673
 30
0.0
  0
SEQEND
  5
1AA
330
1A7
100
AcDbEntity
  8
Livello 1
 62
   251
420
  5723990
370
     9
  0
POLYLINE
  5
1AB
330
68
100
AcDbEntity
  8
Livello 1
 62
   251
420
  5723990
370
     9
100
AcDb2dPolyline
 66
     1
 10
0.0
 20
0.0
 30
0.0
  0
VERTEX
  5
1AC
330
1AB
100
AcDbEntity
  8
Livello 1
 62
   251
420
  5723990
370
     9
100
AcDbVertex
100
AcDb2dVertex
 10
4.685876566986999
 20
48.61027038206673
 30
0.0
  0
VERTEX
  5
1AD
330
1AB
100
AcDbEntity
  8
Livello 1
 62
   251
420
  5723990
370
     9
100
AcDbVertex
100
AcDb2dVertex
 10
4.685876566986999
 20
48.61027038206673
 30
0.0
  0
VERTEX
  5
1AE
330
1AB
100
AcDbEntity
  8
Livello 1
 62
   251
420
  5723990
370
     9
100
AcDbVertex
100
AcDb2dVertex
 10
4.685876566986999
 20
48.58910457667923
 30
0.0
  0
SEQEND
  5
1AF
330
1AB
100
AcDbEntity
  8
Livello 1
 62
   251
420
  5723990
370
     9
  0
POLYLINE
  5
1B0
330
68
100
AcDbEntity
  8
Livello 1
 62
   251
420
  5723990
370
     9
100
AcDb2dPolyline
 66
     1
 10
0.0
 20
0.0
 30
0.0
  0
VERTEX
  5
1B1
330
1B0
100
AcDbEntity
  8
Livello 1
 62
   251
420
  5723990
370
     9
100
AcDbVertex
100
AcDb2dVertex
 10
4.707043381679821
 20
49.133795704744
 30
0.0
  0
VERTEX
  5
1B2
330
1B0
100
AcDbEntity
  8
Livello 1
 62
   251
420
  5723990
370
     9
100
AcDbVertex
100
AcDb2dVertex
 10
4.707043381679821
 20
48.61027038206673
 30
0.0
  0
SEQEND
  5
1B3
330
1B0
100
AcDbEntity
  8
Livello 1
 62
   251
420
  5723990
370
     9
  0
POLYLINE
  5
1B4
330
68
100
AcDbEntity
  8
Livello 1
 62
   251
420
  5723990
370
     9
100
AcDb2dPolyline
 66
     1
 10
0.0
 20
0.0
 30
0.0
  0
VERTEX
  5
1B5
330
1B4
100
AcDbEntity
  8
Livello 1
 62
   251
420
  5723990
370
     9
100
AcDbVertex
100
AcDb2dVertex
 10
4.979035015980719
 20
48.58910457667923
 30
0.0
  0
VERTEX
  5
1B6
330
1B4
100
AcDbEntity
  8
Livello 1
 62
   251
420
  5723990
370
     9
100
AcDbVertex
100
AcDb2dVertex
 10
4.979035015980719
 20
49.133795704744
 30
0.0
  0
SEQEND
  5
1B7
330
1B4
100
AcDbEntity
  8
Livello 1
 62
   251
420
  5723990
370
     9
  0
POLYLINE
  5
1B8
330
68
100
AcDbEntity
  8
Livello 1
 62
   251
420
  5723990
370
     9
100
AcDb2dPolyline
 66
     1
 10
0.0
 20
0.0
 30
0.0
  0
VERTEX
  5
1B9
330
1B8
100
AcDbEntity
  8
Livello 1
 62
   251
420
  5723990
370
     9
100
AcDbVertex
100
AcDb2dVertex
 10
4.707043381679821
 20
49.133795704744
 30
0.0
  0
VERTEX
  5
1BA
330
1B8
100
AcDbEntity
  8
Livello 1
 62
   251
420
  5723990
370
     9
100
AcDbVertex
100
AcDb2dVertex
 10
4.707043381679821
 20
49.1126245163948
 30
0.0
  0
SEQEND
  5
1BB
330
1B8
100
AcDbEntity
  8
Livello 1
 62
   251
420
  5723990
370
     9
  0
POLYLINE
  5
1BC
330
68
100
AcDbEntity
  8
Livello 1
370
     0
100
AcDb2dPolyline
 66
     1
 10
0.0
 20
0.0
 30
0.0
  0
VERTEX
  5
1BD
330
1BC
100
AcDbEntity
  8
Livello 1
370
     0
100
AcDbVertex
100
AcDb2dVertex
 10
0.0
 20
0.0
 30
0.0
  0
VERTEX
  5
1BE
330
1BC
100
AcDbEntity
  8
Livello 1
370
     0
100
AcDbVertex
100
AcDb2dVertex
 10
42.33333332275
 20
0.0
 30
0.0
  0
VERTEX
  5
1BF
330
1BC
100
AcDbEntity
  8
Livello 1
370
     0
100
AcDbVertex
100
AcDb2dVertex
 10
42.33333332275
 20
51.15277776498959
 30
0.0
  0
VERTEX
  5
1C0
330
1BC
100
AcDbEntity
  8
Livello 1
370
     0
100
AcDbVertex
100
AcDb2dVertex
 10
0.0
 20
51.15277776498959
 30
0.0
  0
VERTEX
  5
1C1
330
1BC
100
AcDbEntity
  8
Livello 1
370
     0
100
AcDbVertex
100
AcDb2dVertex
 10
0.0
 20
0.0
 30
0.0
  0
SEQEND
  5
1C2
330
1BC
100
AcDbEntity
  8
Livello 1
370
     0
  0
ENDBLK
  5
6B
330
68
100
AcDbEntity
  8
0
100
AcDbBlockEnd
  0
BLOCK
  5
1D3
330
1D1
100
AcDbEntity
  8
0
100
AcDbBlockBegin
  2
block 4
 70
     0
 10
0.0
 20
0.0
 30
0.0
  3
block 4
  1

  0
SPLINE
  5
1D5
330
1D1
100
AcDbEntity
  8
Livello 1
 62
   251
420
  5723990
370
     9
100
AcDbSpline
210
0.0
220
0.0
230
1.0
 70
     8
 71
     3
 72
    17
 73
    13
 74
     0
 42
0.0000000001
 43
0.0000000001
 12
1.0
 22
0.0
 32
0.0
 13
1.0
 23
0.0
 33
0.0
 40
0.0
 40
0.0
 40
0.0
 40
0.0
 40
1.0
 40
1.0
 40
1.0
 40
2.0
 40
2.0
 40
2.0
 40
3.0
 40
3.0
 40
3.0
 40
4.0
 40
4.0
 40
4.0
 40
4.0
 10
8.889047482705445
 20
33.01100452445531
 30
0.0
 10
8.778980719172985
 20
33.05686466662186
 30
0.0
 10
8.660799813754464
 20
33.08155900340089
 30
0.0
 10
8.537327456989068
 20
33.08155900340089
 30
0.0
 10
7.943249673976848
 20
33.08155900340089
 30
0.0
 10
7.461355504183923
 20
32.49982771590798
 30
0.0
 10
7.461355504183923
 20
31.78298408985292
 30
0.0
 10
7.461355504183923
 20
31.06508002034381
 30
0.0
 10
7.943249673976848
 20
30.48299884034068
 30
0.0
 10
8.537327456989068
 20
30.48299884034068
 30
0.0
 10
8.654097353573103
 20
30.48299884034068
 30
0.0
 10
8.766633550783467
 20
30.50557498169245
 30
0.0
 10
8.872114030951188
 20
30.54720411596617
 30
0.0
  0
POLYLINE
  5
1D6
330
1D1
100
AcDbEntity
  8
Livello 1
370
     0
100
AcDb2dPolyline
 66
     1
 10
0.0
 20
0.0
 30
0.0
  0
VERTEX
  5
1D7
330
1D6
100
AcDbEntity
  8
Livello 1
370
     0
100
AcDbVertex
100
AcDb2dVertex
 10
0.0
 20
0.0
 30
0.0
  0
VERTEX
  5
1D8
330
1D6
100
AcDbEntity
  8
Livello 1
370
     0
100
AcDbVertex
100
AcDb2dVertex
 10
42.33333332275
 20
0.0
 30
0.0
  0
VERTEX
  5
1D9
330
1D6
100
AcDbEntity
  8
Livello 1
370
     0
100
AcDbVertex
100
AcDb2dVertex
 10
42.33333332275
 20
51.15277776498959
 30
0.0
  0
VERTEX
  5
1DA
330
1D6
100
AcDbEntity
  8
Livello 1
370
     0
100
AcDbVertex
100
AcDb2dVertex
 10
0.0
 20
51.15277776498959
 30
0.0
  0
VERTEX
  5
1DB
330
1D6
100
AcDbEntity
  8
Livello 1
370
     0
100
AcDbVertex
100
AcDb2dVertex
 10
0.0
 20
0.0
 30
0.0
  0
SEQEND
  5
1DC
330
1D6
100
AcDbEntity
  8
Livello 1
370
     0
  0
ENDBLK
  5
1D4
330
1D1
100
AcDbEntity
  8
0
100
AcDbBlockEnd
  0
BLOCK
  5
274
330
272
100
AcDbEntity
  8
0
100
AcDbBlockBegin
  2
block 5
 70
     0
 10
0.0
 20
0.0
 30
0.0
  3
block 5
  1

  0
SPLINE
  5
276
330
272
100
AcDbEntity
  8
Livello 1
 62
   251
420
  5723990
370
     9
100
AcDbSpline
210
0.0
220
0.0
230
1.0
 70
     8
 71
     3
 72
    11
 73
     7
 74
     0
 42
0.0000000001
 43
0.0000000001
 12
1.0
 22
0.0
 32
0.0
 13
1.0
 23
0.0
 33
0.0
 40
0.0
 40
0.0
 40
0.0
 40
0.0
 40
1.0
 40
1.0
 40
1.0
 40
2.0
 40
2.0
 40
2.0
 40
2.0
 10
37.61016931653197
 20
47.6210488942091
 30
0.0
 10
37.61016931653197
 20
47.6210488942091
 30
0.0
 10
37.82113027686742
 20
45.03765522572654
 30
0.0
 10
39.13240359705555
 20
42.7160242185826
 30
0.0
 10
40.44367960872453
 20
40.39439590291953
 30
0.0
 10
42.61432123178484
 20
38.60581267769257
 30
0.0
 10
40.61160109882199
 20
32.17361485418669
 30
0.0
  0
POLYLINE
  5
277
330
272
100
AcDbEntity
  8
Livello 1
370
     0
100
AcDb2dPolyline
 66
     1
 10
0.0
 20
0.0
 30
0.0
  0
VERTEX
  5
278
330
277
100
AcDbEntity
  8
Livello 1
370
     0
100
AcDbVertex
100
AcDb2dVertex
 10
0.0
 20
0.0
 30
0.0
  0
VERTEX
  5
279
330
277
100
AcDbEntity
  8
Livello 1
370
     0
100
AcDbVertex
100
AcDb2dVertex
 10
42.33333332275
 20
0.0
 30
0.0
  0
VERTEX
  5
27A
330
277
100
AcDbEntity
  8
Livello 1
370
     0
100
AcDbVertex
100
AcDb2dVertex
 10
42.33333332275
 20
51.15277776498959
 30
0.0
  0
VERTEX
  5
27B
330
277
100
AcDbEntity
  8
Livello 1
370
     0
100
AcDbVertex
100
AcDb2dVertex
 10
0.0
 20
51.15277776498959
 30
0.0
  0
VERTEX
  5
27C
330
277
100
AcDbEntity
  8
Livello 1
370
     0
100
AcDbVertex
100
AcDb2dVertex
 10
0.0
 20
0.0
 30
0.0
  0
SEQEND
  5
27D
330
277
100
AcDbEntity
  8
Livello 1
370
     0
  0
ENDBLK
  5
275
330
272
100
AcDbEntity
  8
0
100
AcDbBlockEnd
  0
BLOCK
  5
293
330
291
100
AcDbEntity
  8
0
100
AcDbBlockBegin
  2
block 6
 70
     0
 10
0.0
 20
0.0
 30
0.0
  3
block 6
  1

  0
SPLINE
  5
295
330
291
100
AcDbEntity
  8
Livello 1
 62
   251
420
  5723990
370
     9
100
AcDbSpline
210
0.0
220
0.0
230
1.0
 70
     8
 71
     3
 72
    17
 73
    13
 74
     0
 42
0.0000000001
 43
0.0000000001
 12
1.0
 22
0.0
 32
0.0
 13
1.0
 23
0.0
 33
0.0
 40
0.0
 40
0.0
 40
0.0
 40
0.0
 40
1.0
 40
1.0
 40
1.0
 40
2.0
 40
2.0
 40
2.0
 40
3.0
 40
3.0
 40
3.0
 40
4.0
 40
4.0
 40
4.0
 40
4.0
 10
40.11665391978719
 20
6.859516163276712
 30
0.0
 10
40.00658850199515
 20
6.905730235174745
 30
0.0
 10
39.88805299397493
 20
6.930424571953782
 30
0.0
 10
39.76493389407081
 20
6.930424571953782
 30
0.0
 10
39.17050419993774
 20
6.930424571953782
 30
0.0
 10
38.68861070301502
 20
6.348694630201292
 30
0.0
 10
38.68861070301502
 20
5.631849658405812
 30
0.0
 10
38.68861070301502
 20
4.913946934637128
 30
0.0
 10
39.17050419993774
 20
4.331863063153145
 30
0.0
 10
39.76493389407081
 20
4.331863063153145
 30
0.0
 10
39.88170379065485
 20
4.331863063153145
 30
0.0
 10
39.99423998786521
 20
4.354441895985771
 30
0.0
 10
40.09936653830144
 20
4.395717100527997
 30
0.0
  0
POLYLINE
  5
296
330
291
100
AcDbEntity
  8
Livello 1
 62
   251
420
  5723990
370
     9
100
AcDb2dPolyline
 66
     1
 10
0.0
 20
0.0
 30
0.0
  0
VERTEX
  5
297
330
296
100
AcDbEntity
  8
Livello 1
 62
   251
420
  5723990
370
     9
100
AcDbVertex
100
AcDb2dVertex
 10
14.26368711962676
 20
22.1623100225356
 30
0.0
  0
VERTEX
  5
298
330
296
100
AcDbEntity
  8
Livello 1
 62
   251
420
  5723990
370
     9
100
AcDbVertex
100
AcDb2dVertex
 10
14.26368711962676
 20
22.1623100225356
 30
0.0
  0
VERTEX
  5
299
330
296
100
AcDbEntity
  8
Livello 1
 62
   251
420
  5723990
370
     9
100
AcDbVertex
100
AcDb2dVertex
 10
14.26368711962676
 20
22.18312458967246
 30
0.0
  0
VERTEX
  5
29A
330
296
100
AcDbEntity
  8
Livello 1
 62
   251
420
  5723990
370
     9
100
AcDbVertex
100
AcDb2dVertex
 10
14.28414775703213
 20
22.18312458967246
 30
0.0
  0
VERTEX
  5
29B
330
296
100
AcDbEntity
  8
Livello 1
 62
   251
420
  5723990
370
     9
100
AcDbVertex
100
AcDb2dVertex
 10
14.30531490816005
 20
22.18312458967246
 30
0.0
  0
VERTEX
  5
29C
330
296
100
AcDbEntity
  8
Livello 1
 62
   251
420
  5723990
370
     9
100
AcDbVertex
100
AcDb2dVertex
 10
14.32648071354756
 20
22.18312458967246
 30
0.0
  0
VERTEX
  5
29D
330
296
100
AcDbEntity
  8
Livello 1
 62
   251
420
  5723990
370
     9
100
AcDbVertex
100
AcDb2dVertex
 10
14.34729528068442
 20
22.18312458967246
 30
0.0
  0
VERTEX
  5
29E
330
296
100
AcDbEntity
  8
Livello 1
 62
   251
420
  5723990
370
     9
100
AcDbVertex
100
AcDb2dVertex
 10
14.36846108607192
 20
22.18312458967246
 30
0.0
  0
VERTEX
  5
29F
330
296
100
AcDbEntity
  8
Livello 1
 62
   251
420
  5723990
370
     9
100
AcDbVertex
100
AcDb2dVertex
 10
14.38892306921771
 20
22.18312458967246
 30
0.0
  0
VERTEX
  5
2A0
330
296
100
AcDbEntity
  8
Livello 1
 62
   251
420
  5723990
370
     9
100
AcDbVertex
100
AcDb2dVertex
 10
14.41008887460521
 20
22.1623100225356
 30
0.0
  0
SEQEND
  5
2A1
330
296
100
AcDbEntity
  8
Livello 1
 62
   251
420
  5723990
370
     9
  0
SPLINE
  5
2A2
330
291
100
AcDbEntity
  8
Livello 1
 62
   251
420
  5723990
370
     9
100
AcDbSpline
210
0.0
220
0.0
230
1.0
 70
     8
 71
     3
 72
    35
 73
    31
 74
     0
 42
0.0000000001
 43
0.0000000001
 12
1.0
 22
0.0
 32
0.0
 13
1.0
 23
0.0
 33
0.0
 40
0.0
 40
0.0
 40
0.0
 40
0.0
 40
1.0
 40
1.0
 40
1.0
 40
2.0
 40
2.0
 40
2.0
 40
3.0
 40
3.0
 40
3.0
 40
4.0
 40
4.0
 40
4.0
 40
5.0
 40
5.0
 40
5.0
 40
6.0
 40
6.0
 40
6.0
 40
7.0
 40
7.0
 40
7.0
 40
8.0
 40
8.0
 40
8.0
 40
9.0
 40
9.0
 40
9.0
 40
10.0
 40
10.0
 40
10.0
 40
10.0
 10
14.34729528068442
 20
22.14114421714809
 30
0.0
 10
14.34729528068442
 20
22.14114421714809
 30
0.0
 10
14.36846108607192
 20
22.14114421714809
 30
0.0
 10
14.36846108607192
 20
22.14114421714809
 30
0.0
 10
14.36846108607192
 20
22.14114421714809
 30
0.0
 10
14.38892306921771
 20
22.1623100225356
 30
0.0
 10
14.38892306921771
 20
22.1623100225356
 30
0.0
 10
14.38892306921771
 20
22.1623100225356
 30
0.0
 10
14.41008887460521
 20
22.1623100225356
 30
0.0
 10
14.41008887460521
 20
22.1623100225356
 30
0.0
 10
14.41008887460521
 20
22.1623100225356
 30
0.0
 10
14.38892306921771
 20
22.1623100225356
 30
0.0
 10
14.38892306921771
 20
22.1623100225356
 30
0.0
 10
14.38892306921771
 20
22.1623100225356
 30
0.0
 10
14.36846108607192
 20
22.1623100225356
 30
0.0
 10
14.36846108607192
 20
22.1623100225356
 30
0.0
 10
14.36846108607192
 20
22.1623100225356
 30
0.0
 10
14.34729528068442
 20
22.1623100225356
 30
0.0
 10
14.34729528068442
 20
22.1623100225356
 30
0.0
 10
14.34729528068442
 20
22.1623100225356
 30
0.0
 10
14.30531490816005
 20
22.1623100225356
 30
0.0
 10
14.30531490816005
 20
22.1623100225356
 30
0.0
 10
14.30531490816005
 20
22.1623100225356
 30
0.0
 10
14.28414775703213
 20
22.1623100225356
 30
0.0
 10
14.28414775703213
 20
22.1623100225356
 30
0.0
 10
14.28414775703213
 20
22.1623100225356
 30
0.0
 10
14.30531490816005
 20
22.1623100225356
 30
0.0
 10
14.30531490816005
 20
22.1623100225356
 30
0.0
 10
14.30531490816005
 20
22.1623100225356
 30
0.0
 10
14.32648071354756
 20
22.14114421714809
 30
0.0
 10
14.32648071354756
 20
22.14114421714809
 30
0.0
  0
POLYLINE
  5
2A3
330
291
100
AcDbEntity
  8
Livello 1
 62
   251
420
  5723990
370
     9
100
AcDb2dPolyline
 66
     1
 10
0.0
 20
0.0
 30
0.0
  0
VERTEX
  5
2A4
330
2A3
100
AcDbEntity
  8
Livello 1
 62
   251
420
  5723990
370
     9
100
AcDbVertex
100
AcDb2dVertex
 10
14.2217067471024
 20
22.9578229422925
 30
0.0
  0
VERTEX
  5
2A5
330
2A3
100
AcDbEntity
  8
Livello 1
 62
   251
420
  5723990
370
     9
100
AcDbVertex
100
AcDb2dVertex
 10
14.20053959597447
 20
22.45546880796442
 30
0.0
  0
SEQEND
  5
2A6
330
2A3
100
AcDbEntity
  8
Livello 1
 62
   251
420
  5723990
370
     9
  0
POLYLINE
  5
2A7
330
291
100
AcDbEntity
  8
Livello 1
 62
   251
420
  5723990
370
     9
100
AcDb2dPolyline
 66
     1
 10
0.0
 20
0.0
 30
0.0
  0
VERTEX
  5
2A8
330
2A7
100
AcDbEntity
  8
Livello 1
 62
   251
420
  5723990
370
     9
100
AcDbVertex
100
AcDb2dVertex
 10
14.4936983814033
 20
22.97899143916085
 30
0.0
  0
VERTEX
  5
2A9
330
2A7
100
AcDbEntity
  8
Livello 1
 62
   251
420
  5723990
370
     9
100
AcDbVertex
100
AcDb2dVertex
 10
14.4936983814033
 20
22.97899143916085
 30
0.0
  0
VERTEX
  5
2AA
330
2A7
100
AcDbEntity
  8
Livello 1
 62
   251
420
  5723990
370
     9
100
AcDbVertex
100
AcDb2dVertex
 10
14.48593615063809
 20
22.99451320921041
 30
0.0
  0
VERTEX
  5
2AB
330
2A7
100
AcDbEntity
  8
Livello 1
 62
   251
420
  5723990
370
     9
100
AcDbVertex
100
AcDb2dVertex
 10
14.46582809722379
 20
22.99733388113896
 30
0.0
  0
VERTEX
  5
2AC
330
2A7
100
AcDbEntity
  8
Livello 1
 62
   251
420
  5723990
370
     9
100
AcDbVertex
100
AcDb2dVertex
 10
14.43090344174207
 20
23.00050982853942
 30
0.0
  0
VERTEX
  5
2AD
330
2A7
100
AcDbEntity
  8
Livello 1
 62
   251
420
  5723990
370
     9
100
AcDbVertex
100
AcDb2dVertex
 10
14.38892306921771
 20
23.00050982853942
 30
0.0
  0
VERTEX
  5
2AE
330
2A7
100
AcDbEntity
  8
Livello 1
 62
   251
420
  5723990
370
     9
100
AcDbVertex
100
AcDb2dVertex
 10
14.36846108607192
 20
23.00050982853942
 30
0.0
  0
VERTEX
  5
2AF
330
2A7
100
AcDbEntity
  8
Livello 1
 62
   251
420
  5723990
370
     9
100
AcDbVertex
100
AcDb2dVertex
 10
14.32648071354756
 20
23.00050982853942
 30
0.0
  0
VERTEX
  5
2B0
330
2A7
100
AcDbEntity
  8
Livello 1
 62
   251
420
  5723990
370
     9
100
AcDbVertex
100
AcDb2dVertex
 10
14.28414775703213
 20
23.00050982853942
 30
0.0
  0
VERTEX
  5
2B1
330
2A7
100
AcDbEntity
  8
Livello 1
 62
   251
420
  5723990
370
     9
100
AcDbVertex
100
AcDb2dVertex
 10
14.26368711962676
 20
23.00050982853942
 30
0.0
  0
VERTEX
  5
2B2
330
2A7
100
AcDbEntity
  8
Livello 1
 62
   251
420
  5723990
370
     9
100
AcDbVertex
100
AcDb2dVertex
 10
14.24251996849883
 20
23.00050982853942
 30
0.0
  0
VERTEX
  5
2B3
330
2A7
100
AcDbEntity
  8
Livello 1
 62
   251
420
  5723990
370
     9
100
AcDbVertex
100
AcDb2dVertex
 10
14.2217067471024
 20
22.97899143916085
 30
0.0
  0
SEQEND
  5
2B4
330
2A7
100
AcDbEntity
  8
Livello 1
 62
   251
420
  5723990
370
     9
  0
SPLINE
  5
2B5
330
291
100
AcDbEntity
  8
Livello 1
 62
   251
420
  5723990
370
     9
100
AcDbSpline
210
0.0
220
0.0
230
1.0
 70
    24
 71
     3
 72
    20
 73
    16
 74
     0
 42
0.0000000001
 43
0.0000000001
 12
1.0
 22
0.0
 32
0.0
 13
1.0
 23
0.0
 33
0.0
 40
0.0
 40
0.0
 40
0.0
 40
0.0
 40
1.0
 40
1.0
 40
1.0
 40
2.0
 40
2.0
 40
2.0
 40
3.0
 40
3.0
 40
3.0
 40
4.0
 40
4.0
 40
4.0
 40
5.0
 40
5.0
 40
5.0
 40
5.0
 10
14.34729528068442
 20
22.1623100225356
 30
0.0
 10
14.34729528068442
 20
22.1623100225356
 30
0.0
 10
14.36846108607192
 20
22.1623100225356
 30
0.0
 10
14.36846108607192
 20
22.1623100225356
 30
0.0
 10
14.36846108607192
 20
22.1623100225356
 30
0.0
 10
14.34729528068442
 20
22.1623100225356
 30
0.0
 10
14.34729528068442
 20
22.1623100225356
 30
0.0
 10
14.34729528068442
 20
22.1623100225356
 30
0.0
 10
14.32648071354756
 20
22.1623100225356
 30
0.0
 10
14.32648071354756
 20
22.1623100225356
 30
0.0
 10
14.32648071354756
 20
22.1623100225356
 30
0.0
 10
14.30531490816005
 20
22.1623100225356
 30
0.0
 10
14.30531490816005
 20
22.1623100225356
 30
0.0
 10
14.30531490816005
 20
22.1623100225356
 30
0.0
 10
14.32648071354756
 20
22.1623100225356
 30
0.0
 10
14.32648071354756
 20
22.1623100225356
 30
0.0
  0
POLYLINE
  5
2B6
330
291
100
AcDbEntity
  8
Livello 1
 62
   251
420
  5723990
370
     9
100
AcDb2dPolyline
 66
     1
 10
0.0
 20
0.0
 30
0.0
  0
VERTEX
  5
2B7
330
2B6
100
AcDbEntity
  8
Livello 1
 62
   251
420
  5723990
370
     9
100
AcDbVertex
100
AcDb2dVertex
 10
14.41008887460521
 20
22.37186064690676
 30
0.0
  0
VERTEX
  5
2B8
330
2B6
100
AcDbEntity
  8
Livello 1
 62
   251
420
  5723990
370
     9
100
AcDbVertex
100
AcDb2dVertex
 10
14.41008887460521
 20
22.37186064690676
 30
0.0
  0
VERTEX
  5
2B9
330
2B6
100
AcDbEntity
  8
Livello 1
 62
   251
420
  5723990
370
     9
100
AcDbVertex
100
AcDb2dVertex
 10
14.45171666313851
 20
22.37186064690676
 30
0.0
  0
VERTEX
  5
2BA
330
2B6
100
AcDbEntity
  8
Livello 1
 62
   251
420
  5723990
370
     9
100
AcDbVertex
100
AcDb2dVertex
 10
14.47288381426644
 20
22.3926738683032
 30
0.0
  0
VERTEX
  5
2BB
330
2B6
100
AcDbEntity
  8
Livello 1
 62
   251
420
  5723990
370
     9
100
AcDbVertex
100
AcDb2dVertex
 10
14.45171666313851
 20
22.41384101943113
 30
0.0
  0
VERTEX
  5
2BC
330
2B6
100
AcDbEntity
  8
Livello 1
 62
   251
420
  5723990
370
     9
100
AcDbVertex
100
AcDb2dVertex
 10
14.41008887460521
 20
22.41384101943113
 30
0.0
  0
VERTEX
  5
2BD
330
2B6
100
AcDbEntity
  8
Livello 1
 62
   251
420
  5723990
370
     9
100
AcDbVertex
100
AcDb2dVertex
 10
14.38892306921771
 20
22.41384101943113
 30
0.0
  0
VERTEX
  5
2BE
330
2B6
100
AcDbEntity
  8
Livello 1
 62
   251
420
  5723990
370
     9
100
AcDbVertex
100
AcDb2dVertex
 10
14.34729528068442
 20
22.41384101943113
 30
0.0
  0
VERTEX
  5
2BF
330
2B6
100
AcDbEntity
  8
Livello 1
 62
   251
420
  5723990
370
     9
100
AcDbVertex
100
AcDb2dVertex
 10
14.30531490816005
 20
22.41384101943113
 30
0.0
  0
VERTEX
  5
2C0
330
2B6
100
AcDbEntity
  8
Livello 1
 62
   251
420
  5723990
370
     9
100
AcDbVertex
100
AcDb2dVertex
 10
14.28414775703213
 20
22.41384101943113
 30
0.0
  0
VERTEX
  5
2C1
330
2B6
100
AcDbEntity
  8
Livello 1
 62
   251
420
  5723990
370
     9
100
AcDbVertex
100
AcDb2dVertex
 10
14.24251996849883
 20
22.41384101943113
 30
0.0
  0
VERTEX
  5
2C2
330
2B6
100
AcDbEntity
  8
Livello 1
 62
   251
420
  5723990
370
     9
100
AcDbVertex
100
AcDb2dVertex
 10
14.2217067471024
 20
22.41384101943113
 30
0.0
  0
VERTEX
  5
2C3
330
2B6
100
AcDbEntity
  8
Livello 1
 62
   251
420
  5723990
370
     9
100
AcDbVertex
100
AcDb2dVertex
 10
14.20053959597447
 20
22.41384101943113
 30
0.0
  0
VERTEX
  5
2C4
330
2B6
100
AcDbEntity
  8
Livello 1
 62
   251
420
  5723990
370
     9
100
AcDbVertex
100
AcDb2dVertex
 10
14.20053959597447
 20
22.3926738683032
 30
0.0
  0
VERTEX
  5
2C5
330
2B6
100
AcDbEntity
  8
Livello 1
 62
   251
420
  5723990
370
     9
100
AcDbVertex
100
AcDb2dVertex
 10
14.20406678162558
 20
22.37926894794047
 30
0.0
  0
VERTEX
  5
2C6
330
2B6
100
AcDbEntity
  8
Livello 1
 62
   251
420
  5723990
370
     9
100
AcDbVertex
100
AcDb2dVertex
 10
14.2217067471024
 20
22.37186064690676
 30
0.0
  0
VERTEX
  5
2C7
330
2B6
100
AcDbEntity
  8
Livello 1
 62
   251
420
  5723990
370
     9
100
AcDbVertex
100
AcDb2dVertex
 10
14.26368711962676
 20
22.37186064690676
 30
0.0
  0
SEQEND
  5
2C8
330
2B6
100
AcDbEntity
  8
Livello 1
 62
   251
420
  5723990
370
     9
  0
POLYLINE
  5
2C9
330
291
100
AcDbEntity
  8
Livello 1
 62
   251
420
  5723990
370
     9
100
AcDb2dPolyline
 66
     1
 10
0.0
 20
0.0
 30
0.0
  0
VERTEX
  5
2CA
330
2C9
100
AcDbEntity
  8
Livello 1
 62
   251
420
  5723990
370
     9
100
AcDbVertex
100
AcDb2dVertex
 10
15.77604501117914
 20
5.383847192901814
 30
0.0
  0
VERTEX
  5
2CB
330
2C9
100
AcDbEntity
  8
Livello 1
 62
   251
420
  5723990
370
     9
100
AcDbVertex
100
AcDb2dVertex
 10
15.796859578316
 20
5.383847192901814
 30
0.0
  0
SEQEND
  5
2CC
330
2C9
100
AcDbEntity
  8
Livello 1
 62
   251
420
  5723990
370
     9
  0
POLYLINE
  5
2CD
330
291
100
AcDbEntity
  8
Livello 1
 62
   251
420
  5723990
370
     9
100
AcDb2dPolyline
 66
     1
 10
0.0
 20
0.0
 30
0.0
  0
VERTEX
  5
2CE
330
2CD
100
AcDbEntity
  8
Livello 1
 62
   251
420
  5723990
370
     9
100
AcDbVertex
100
AcDb2dVertex
 10
15.77604501117914
 20
5.383847192901814
 30
0.0
  0
VERTEX
  5
2CF
330
2CD
100
AcDbEntity
  8
Livello 1
 62
   251
420
  5723990
370
     9
100
AcDbVertex
100
AcDb2dVertex
 10
40.10289506969298
 20
5.371147440521227
 30
0.0
  0
SEQEND
  5
2D0
330
2CD
100
AcDbEntity
  8
Livello 1
 62
   251
420
  5723990
370
     9
  0
POLYLINE
  5
2D1
330
291
100
AcDbEntity
  8
Livello 1
 62
   251
420
  5723990
370
     9
100
AcDb2dPolyline
 66
     1
 10
0.0
 20
0.0
 30
0.0
  0
VERTEX
  5
2D2
330
2D1
100
AcDbEntity
  8
Livello 1
 62
   251
420
  5723990
370
     9
100
AcDbVertex
100
AcDb2dVertex
 10
39.85171800252893
 20
5.937003028233089
 30
0.0
  0
VERTEX
  5
2D3
330
2D1
100
AcDbEntity
  8
Livello 1
 62
   251
420
  5723990
370
     9
100
AcDbVertex
100
AcDb2dVertex
 10
39.78892306286771
 20
5.937003028233089
 30
0.0
  0
SEQEND
  5
2D4
330
2D1
100
AcDbEntity
  8
Livello 1
 62
   251
420
  5723990
370
     9
  0
POLYLINE
  5
2D5
330
291
100
AcDbEntity
  8
Livello 1
 62
   251
420
  5723990
370
     9
100
AcDb2dPolyline
 66
     1
 10
0.0
 20
0.0
 30
0.0
  0
VERTEX
  5
2D6
330
2D5
100
AcDbEntity
  8
Livello 1
 62
   251
420
  5723990
370
     9
100
AcDbVertex
100
AcDb2dVertex
 10
39.85171800252893
 20
5.3926658298998
 30
0.0
  0
VERTEX
  5
2D7
330
2D5
100
AcDbEntity
  8
Livello 1
 62
   251
420
  5723990
370
     9
100
AcDbVertex
100
AcDb2dVertex
 10
39.8309047811325
 20
5.3926658298998
 30
0.0
  0
SEQEND
  5
2D8
330
2D5
100
AcDbEntity
  8
Livello 1
 62
   251
420
  5723990
370
     9
  0
POLYLINE
  5
2D9
330
291
100
AcDbEntity
  8
Livello 1
 62
   251
420
  5723990
370
     9
100
AcDb2dPolyline
 66
     1
 10
0.0
 20
0.0
 30
0.0
  0
VERTEX
  5
2DA
330
2D9
100
AcDbEntity
  8
Livello 1
 62
   251
420
  5723990
370
     9
100
AcDbVertex
100
AcDb2dVertex
 10
15.46172042036281
 20
5.886555256961386
 30
0.0
  0
VERTEX
  5
2DB
330
2D9
100
AcDbEntity
  8
Livello 1
 62
   251
420
  5723990
370
     9
100
AcDbVertex
100
AcDb2dVertex
 10
15.46172042036281
 20
5.405012998289318
 30
0.0
  0
SEQEND
  5
2DC
330
2D9
100
AcDbEntity
  8
Livello 1
 62
   251
420
  5723990
370
     9
  0
POLYLINE
  5
2DD
330
291
100
AcDbEntity
  8
Livello 1
 62
   251
420
  5723990
370
     9
100
AcDb2dPolyline
 66
     1
 10
0.0
 20
0.0
 30
0.0
  0
VERTEX
  5
2DE
330
2DD
100
AcDbEntity
  8
Livello 1
 62
   251
420
  5723990
370
     9
100
AcDbVertex
100
AcDb2dVertex
 10
39.78892306286771
 20
5.937003028233089
 30
0.0
  0
VERTEX
  5
2DF
330
2DD
100
AcDbEntity
  8
Livello 1
 62
   251
420
  5723990
370
     9
100
AcDbVertex
100
AcDb2dVertex
 10
39.80973628426415
 20
5.3926658298998
 30
0.0
  0
SEQEND
  5
2E0
330
2DD
100
AcDbEntity
  8
Livello 1
 62
   251
420
  5723990
370
     9
  0
POLYLINE
  5
2E1
330
291
100
AcDbEntity
  8
Livello 1
 62
   251
420
  5723990
370
     9
100
AcDb2dPolyline
 66
     1
 10
0.0
 20
0.0
 30
0.0
  0
VERTEX
  5
2E2
330
2E1
100
AcDbEntity
  8
Livello 1
 62
   251
420
  5723990
370
     9
100
AcDbVertex
100
AcDb2dVertex
 10
39.78892306286771
 20
5.937003028233089
 30
0.0
  0
VERTEX
  5
2E3
330
2E1
100
AcDbEntity
  8
Livello 1
 62
   251
420
  5723990
370
     9
100
AcDbVertex
100
AcDb2dVertex
 10
15.46172042036281
 20
5.886555256961386
 30
0.0
  0
SEQEND
  5
2E4
330
2E1
100
AcDbEntity
  8
Livello 1
 62
   251
420
  5723990
370
     9
  0
POLYLINE
  5
2E5
330
291
100
AcDbEntity
  8
Livello 1
 62
   251
420
  5723990
370
     9
100
AcDb2dPolyline
 66
     1
 10
0.0
 20
0.0
 30
0.0
  0
VERTEX
  5
2E6
330
2E5
100
AcDbEntity
  8
Livello 1
 62
   251
420
  5723990
370
     9
100
AcDbVertex
100
AcDb2dVertex
 10
15.46172042036281
 20
5.405012998289318
 30
0.0
  0
VERTEX
  5
2E7
330
2E5
100
AcDbEntity
  8
Livello 1
 62
   251
420
  5723990
370
     9
100
AcDbVertex
100
AcDb2dVertex
 10
15.50370079288718
 20
5.405012998289318
 30
0.0
  0
SEQEND
  5
2E8
330
2E5
100
AcDbEntity
  8
Livello 1
 62
   251
420
  5723990
370
     9
  0
POLYLINE
  5
2E9
330
291
100
AcDbEntity
  8
Livello 1
 62
   251
420
  5723990
370
     9
100
AcDb2dPolyline
 66
     1
 10
0.0
 20
0.0
 30
0.0
  0
VERTEX
  5
2EA
330
2E9
100
AcDbEntity
  8
Livello 1
 62
   251
420
  5723990
370
     9
100
AcDbVertex
100
AcDb2dVertex
 10
15.50370079288718
 20
5.405012998289318
 30
0.0
  0
VERTEX
  5
2EB
330
2E9
100
AcDbEntity
  8
Livello 1
 62
   251
420
  5723990
370
     9
100
AcDbVertex
100
AcDb2dVertex
 10
39.8309047811325
 20
5.3926658298998
 30
0.0
  0
SEQEND
  5
2EC
330
2E9
100
AcDbEntity
  8
Livello 1
 62
   251
420
  5723990
370
     9
  0
POLYLINE
  5
2ED
330
291
100
AcDbEntity
  8
Livello 1
 62
   251
420
  5723990
370
     9
100
AcDb2dPolyline
 66
     1
 10
0.0
 20
0.0
 30
0.0
  0
VERTEX
  5
2EE
330
2ED
100
AcDbEntity
  8
Livello 1
 62
   251
420
  5723990
370
     9
100
AcDbVertex
100
AcDb2dVertex
 10
39.80973628426415
 20
5.3926658298998
 30
0.0
  0
VERTEX
  5
2EF
330
2ED
100
AcDbEntity
  8
Livello 1
 62
   251
420
  5723990
370
     9
100
AcDbVertex
100
AcDb2dVertex
 10
39.8309047811325
 20
5.3926658298998
 30
0.0
  0
SEQEND
  5
2F0
330
2ED
100
AcDbEntity
  8
Livello 1
 62
   251
420
  5723990
370
     9
  0
POLYLINE
  5
2F1
330
291
100
AcDbEntity
  8
Livello 1
 62
   251
420
  5723990
370
     9
100
AcDb2dPolyline
 66
     1
 10
0.0
 20
0.0
 30
0.0
  0
VERTEX
  5
2F2
330
2F1
100
AcDbEntity
  8
Livello 1
 62
   251
420
  5723990
370
     9
100
AcDbVertex
100
AcDb2dVertex
 10
39.80973628426415
 20
5.3926658298998
 30
0.0
  0
VERTEX
  5
2F3
330
2F1
100
AcDbEntity
  8
Livello 1
 62
   251
420
  5723990
370
     9
100
AcDbVertex
100
AcDb2dVertex
 10
15.46172042036281
 20
5.405012998289318
 30
0.0
  0
SEQEND
  5
2F4
330
2F1
100
AcDbEntity
  8
Livello 1
 62
   251
420
  5723990
370
     9
  0
POLYLINE
  5
2F5
330
291
100
AcDbEntity
  8
Livello 1
 62
   251
420
  5723990
370
     9
100
AcDb2dPolyline
 66
     1
 10
0.0
 20
0.0
 30
0.0
  0
VERTEX
  5
2F6
330
2F5
100
AcDbEntity
  8
Livello 1
 62
   251
420
  5723990
370
     9
100
AcDbVertex
100
AcDb2dVertex
 10
15.50370079288718
 20
5.405012998289318
 30
0.0
  0
VERTEX
  5
2F7
330
2F5
100
AcDbEntity
  8
Livello 1
 62
   251
420
  5723990
370
     9
100
AcDbVertex
100
AcDb2dVertex
 10
15.77604501117914
 20
5.383847192901814
 30
0.0
  0
SEQEND
  5
2F8
330
2F5
100
AcDbEntity
  8
Livello 1
 62
   251
420
  5723990
370
     9
  0
POLYLINE
  5
2F9
330
291
100
AcDbEntity
  8
Livello 1
 62
   251
420
  5723990
370
     9
100
AcDb2dPolyline
 66
     1
 10
0.0
 20
0.0
 30
0.0
  0
VERTEX
  5
2FA
330
2F9
100
AcDbEntity
  8
Livello 1
 62
   251
420
  5723990
370
     9
100
AcDbVertex
100
AcDb2dVertex
 10
40.10289506969298
 20
5.371147440521227
 30
0.0
  0
VERTEX
  5
2FB
330
2F9
100
AcDbEntity
  8
Livello 1
 62
   251
420
  5723990
370
     9
100
AcDbVertex
100
AcDb2dVertex
 10
15.77604501117914
 20
5.383847192901814
 30
0.0
  0
SEQEND
  5
2FC
330
2F9
100
AcDbEntity
  8
Livello 1
 62
   251
420
  5723990
370
     9
  0
POLYLINE
  5
2FD
330
291
100
AcDbEntity
  8
Livello 1
 62
   251
420
  5723990
370
     9
100
AcDb2dPolyline
 66
     1
 10
0.0
 20
0.0
 30
0.0
  0
VERTEX
  5
2FE
330
2FD
100
AcDbEntity
  8
Livello 1
 62
   251
420
  5723990
370
     9
100
AcDbVertex
100
AcDb2dVertex
 10
39.8309047811325
 20
5.3926658298998
 30
0.0
  0
VERTEX
  5
2FF
330
2FD
100
AcDbEntity
  8
Livello 1
 62
   251
420
  5723990
370
     9
100
AcDbVertex
100
AcDb2dVertex
 10
40.10289506969298
 20
5.371147440521227
 30
0.0
  0
SEQEND
  5
300
330
2FD
100
AcDbEntity
  8
Livello 1
 62
   251
420
  5723990
370
     9
  0
POLYLINE
  5
301
330
291
100
AcDbEntity
  8
Livello 1
 62
   251
420
  5723990
370
     9
100
AcDb2dPolyline
 66
     1
 10
0.0
 20
0.0
 30
0.0
  0
VERTEX
  5
302
330
301
100
AcDbEntity
  8
Livello 1
 62
   251
420
  5723990
370
     9
100
AcDbVertex
100
AcDb2dVertex
 10
39.8309047811325
 20
5.3926658298998
 30
0.0
  0
VERTEX
  5
303
330
301
100
AcDbEntity
  8
Livello 1
 62
   251
420
  5723990
370
     9
100
AcDbVertex
100
AcDb2dVertex
 10
15.50370079288718
 20
5.405012998289318
 30
0.0
  0
SEQEND
  5
304
330
301
100
AcDbEntity
  8
Livello 1
 62
   251
420
  5723990
370
     9
  0
POLYLINE
  5
305
330
291
100
AcDbEntity
  8
Livello 1
 62
   251
420
  5723990
370
     9
100
AcDb2dPolyline
 66
     1
 10
0.0
 20
0.0
 30
0.0
  0
VERTEX
  5
306
330
305
100
AcDbEntity
  8
Livello 1
 62
   251
420
  5723990
370
     9
100
AcDbVertex
100
AcDb2dVertex
 10
39.85171800252893
 20
5.3926658298998
 30
0.0
  0
VERTEX
  5
307
330
305
100
AcDbEntity
  8
Livello 1
 62
   251
420
  5723990
370
     9
100
AcDbVertex
100
AcDb2dVertex
 10
39.8309047811325
 20
5.3926658298998
 30
0.0
  0
SEQEND
  5
308
330
305
100
AcDbEntity
  8
Livello 1
 62
   251
420
  5723990
370
     9
  0
POLYLINE
  5
309
330
291
100
AcDbEntity
  8
Livello 1
 62
   251
420
  5723990
370
     9
100
AcDb2dPolyline
 66
     1
 10
0.0
 20
0.0
 30
0.0
  0
VERTEX
  5
30A
330
309
100
AcDbEntity
  8
Livello 1
 62
   251
420
  5723990
370
     9
100
AcDbVertex
100
AcDb2dVertex
 10
41.63218641299962
 20
5.955699399942689
 30
0.0
  0
VERTEX
  5
30B
330
309
100
AcDbEntity
  8
Livello 1
 62
   251
420
  5723990
370
     9
100
AcDbVertex
100
AcDb2dVertex
 10
39.85171800252893
 20
5.937003028233089
 30
0.0
  0
SEQEND
  5
30C
330
309
100
AcDbEntity
  8
Livello 1
 62
   251
420
  5723990
370
     9
  0
POLYLINE
  5
30D
330
291
100
AcDbEntity
  8
Livello 1
 62
   251
420
  5723990
370
     9
100
AcDb2dPolyline
 66
     1
 10
0.0
 20
0.0
 30
0.0
  0
VERTEX
  5
30E
330
30D
100
AcDbEntity
  8
Livello 1
 62
   251
420
  5723990
370
     9
100
AcDbVertex
100
AcDb2dVertex
 10
39.85171800252893
 20
5.3926658298998
 30
0.0
  0
VERTEX
  5
30F
330
30D
100
AcDbEntity
  8
Livello 1
 62
   251
420
  5723990
370
     9
100
AcDbVertex
100
AcDb2dVertex
 10
39.85171800252893
 20
5.937003028233089
 30
0.0
  0
SEQEND
  5
310
330
30D
100
AcDbEntity
  8
Livello 1
 62
   251
420
  5723990
370
     9
  0
POLYLINE
  5
311
330
291
100
AcDbEntity
  8
Livello 1
 62
   251
420
  5723990
370
     9
100
AcDb2dPolyline
 66
     1
 10
0.0
 20
0.0
 30
0.0
  0
VERTEX
  5
312
330
311
100
AcDbEntity
  8
Livello 1
 62
   251
420
  5723990
370
     9
100
AcDbVertex
100
AcDb2dVertex
 10
41.63218641299962
 20
5.389843812230827
 30
0.0
  0
VERTEX
  5
313
330
311
100
AcDbEntity
  8
Livello 1
 62
   251
420
  5723990
370
     9
100
AcDbVertex
100
AcDb2dVertex
 10
41.63218641299962
 20
5.955699399942689
 30
0.0
  0
SEQEND
  5
314
330
311
100
AcDbEntity
  8
Livello 1
 62
   251
420
  5723990
370
     9
  0
POLYLINE
  5
315
330
291
100
AcDbEntity
  8
Livello 1
 62
   251
420
  5723990
370
     9
100
AcDb2dPolyline
 66
     1
 10
0.0
 20
0.0
 30
0.0
  0
VERTEX
  5
316
330
315
100
AcDbEntity
  8
Livello 1
 62
   251
420
  5723990
370
     9
100
AcDbVertex
100
AcDb2dVertex
 10
41.63218641299962
 20
5.389843812230827
 30
0.0
  0
VERTEX
  5
317
330
315
100
AcDbEntity
  8
Livello 1
 62
   251
420
  5723990
370
     9
100
AcDbVertex
100
AcDb2dVertex
 10
39.85171800252893
 20
5.3926658298998
 30
0.0
  0
SEQEND
  5
318
330
315
100
AcDbEntity
  8
Livello 1
 62
   251
420
  5723990
370
     9
  0
POLYLINE
  5
319
330
291
100
AcDbEntity
  8
Livello 1
 62
   251
420
  5723990
370
     9
100
AcDb2dPolyline
 66
     1
 10
0.0
 20
0.0
 30
0.0
  0
VERTEX
  5
31A
330
319
100
AcDbEntity
  8
Livello 1
 62
   251
420
  5723990
370
     9
100
AcDbVertex
100
AcDb2dVertex
 10
40.1868558147417
 20
5.371147440521227
 30
0.0
  0
VERTEX
  5
31B
330
319
100
AcDbEntity
  8
Livello 1
 62
   251
420
  5723990
370
     9
100
AcDbVertex
100
AcDb2dVertex
 10
39.85171800252893
 20
5.3926658298998
 30
0.0
  0
SEQEND
  5
31C
330
319
100
AcDbEntity
  8
Livello 1
 62
   251
420
  5723990
370
     9
  0
POLYLINE
  5
31D
330
291
100
AcDbEntity
  8
Livello 1
 62
   251
420
  5723990
370
     9
100
AcDb2dPolyline
 66
     1
 10
0.0
 20
0.0
 30
0.0
  0
VERTEX
  5
31E
330
31D
100
AcDbEntity
  8
Livello 1
 62
   251
420
  5723990
370
     9
100
AcDbVertex
100
AcDb2dVertex
 10
13.90632305857244
 20
5.341866820377451
 30
0.0
  0
VERTEX
  5
31F
330
31D
100
AcDbEntity
  8
Livello 1
 62
   251
420
  5723990
370
     9
100
AcDbVertex
100
AcDb2dVertex
 10
13.55036933348239
 20
5.362680041773887
 30
0.0
  0
SEQEND
  5
320
330
31D
100
AcDbEntity
  8
Livello 1
 62
   251
420
  5723990
370
     9
  0
POLYLINE
  5
321
330
291
100
AcDbEntity
  8
Livello 1
 62
   251
420
  5723990
370
     9
100
AcDb2dPolyline
 66
     1
 10
0.0
 20
0.0
 30
0.0
  0
VERTEX
  5
322
330
321
100
AcDbEntity
  8
Livello 1
 62
   251
420
  5723990
370
     9
100
AcDbVertex
100
AcDb2dVertex
 10
15.77604501117914
 20
5.383847192901814
 30
0.0
  0
VERTEX
  5
323
330
321
100
AcDbEntity
  8
Livello 1
 62
   251
420
  5723990
370
     9
100
AcDbVertex
100
AcDb2dVertex
 10
13.90632305857244
 20
5.341866820377451
 30
0.0
  0
SEQEND
  5
324
330
321
100
AcDbEntity
  8
Livello 1
 62
   251
420
  5723990
370
     9
  0
POLYLINE
  5
325
330
291
100
AcDbEntity
  8
Livello 1
 62
   251
420
  5723990
370
     9
100
AcDb2dPolyline
 66
     1
 10
0.0
 20
0.0
 30
0.0
  0
VERTEX
  5
326
330
325
100
AcDbEntity
  8
Livello 1
 62
   251
420
  5723990
370
     9
100
AcDbVertex
100
AcDb2dVertex
 10
15.44090585322596
 20
5.886555256961386
 30
0.0
  0
VERTEX
  5
327
330
325
100
AcDbEntity
  8
Livello 1
 62
   251
420
  5723990
370
     9
100
AcDbVertex
100
AcDb2dVertex
 10
13.55036933348239
 20
5.884790991265619
 30
0.0
  0
SEQEND
  5
328
330
325
100
AcDbEntity
  8
Livello 1
 62
   251
420
  5723990
370
     9
  0
POLYLINE
  5
329
330
291
100
AcDbEntity
  8
Livello 1
 62
   251
420
  5723990
370
     9
100
AcDb2dPolyline
 66
     1
 10
0.0
 20
0.0
 30
0.0
  0
VERTEX
  5
32A
330
329
100
AcDbEntity
  8
Livello 1
 62
   251
420
  5723990
370
     9
100
AcDbVertex
100
AcDb2dVertex
 10
13.55036933348239
 20
5.362680041773887
 30
0.0
  0
VERTEX
  5
32B
330
329
100
AcDbEntity
  8
Livello 1
 62
   251
420
  5723990
370
     9
100
AcDbVertex
100
AcDb2dVertex
 10
13.55036933348239
 20
5.823760317300164
 30
0.0
  0
SEQEND
  5
32C
330
329
100
AcDbEntity
  8
Livello 1
 62
   251
420
  5723990
370
     9
  0
POLYLINE
  5
32D
330
291
100
AcDbEntity
  8
Livello 1
 62
   251
420
  5723990
370
     9
100
AcDb2dPolyline
 66
     1
 10
0.0
 20
0.0
 30
0.0
  0
VERTEX
  5
32E
330
32D
100
AcDbEntity
  8
Livello 1
 62
   251
420
  5723990
370
     9
100
AcDbVertex
100
AcDb2dVertex
 10
15.41974004783845
 20
5.405012998289318
 30
0.0
  0
VERTEX
  5
32F
330
32D
100
AcDbEntity
  8
Livello 1
 62
   251
420
  5723990
370
     9
100
AcDbVertex
100
AcDb2dVertex
 10
13.55036933348239
 20
5.362680041773887
 30
0.0
  0
SEQEND
  5
330
330
32D
100
AcDbEntity
  8
Livello 1
 62
   251
420
  5723990
370
     9
  0
POLYLINE
  5
331
330
291
100
AcDbEntity
  8
Livello 1
 62
   251
420
  5723990
370
     9
100
AcDb2dPolyline
 66
     1
 10
0.0
 20
0.0
 30
0.0
  0
VERTEX
  5
332
330
331
100
AcDbEntity
  8
Livello 1
 62
   251
420
  5723990
370
     9
100
AcDbVertex
100
AcDb2dVertex
 10
15.41974004783845
 20
5.405012998289318
 30
0.0
  0
VERTEX
  5
333
330
331
100
AcDbEntity
  8
Livello 1
 62
   251
420
  5723990
370
     9
100
AcDbVertex
100
AcDb2dVertex
 10
15.44090585322596
 20
5.886555256961386
 30
0.0
  0
SEQEND
  5
334
330
331
100
AcDbEntity
  8
Livello 1
 62
   251
420
  5723990
370
     9
  0
POLYLINE
  5
335
330
291
100
AcDbEntity
  8
Livello 1
 62
   251
420
  5723990
370
     9
100
AcDb2dPolyline
 66
     1
 10
0.0
 20
0.0
 30
0.0
  0
VERTEX
  5
336
330
335
100
AcDbEntity
  8
Livello 1
 62
   251
420
  5723990
370
     9
100
AcDbVertex
100
AcDb2dVertex
 10
15.77604501117914
 20
5.383847192901814
 30
0.0
  0
VERTEX
  5
337
330
335
100
AcDbEntity
  8
Livello 1
 62
   251
420
  5723990
370
     9
100
AcDbVertex
100
AcDb2dVertex
 10
15.41974004783845
 20
5.405012998289318
 30
0.0
  0
SEQEND
  5
338
330
335
100
AcDbEntity
  8
Livello 1
 62
   251
420
  5723990
370
     9
  0
POLYLINE
  5
339
330
291
100
AcDbEntity
  8
Livello 1
 62
   251
420
  5723990
370
     9
100
AcDb2dPolyline
 66
     1
 10
0.0
 20
0.0
 30
0.0
  0
VERTEX
  5
33A
330
339
100
AcDbEntity
  8
Livello 1
 62
   251
420
  5723990
370
     9
100
AcDbVertex
100
AcDb2dVertex
 10
15.44090585322596
 20
5.886555256961386
 30
0.0
  0
VERTEX
  5
33B
330
339
100
AcDbEntity
  8
Livello 1
 62
   251
420
  5723990
370
     9
100
AcDbVertex
100
AcDb2dVertex
 10
15.46172042036281
 20
5.886555256961386
 30
0.0
  0
SEQEND
  5
33C
330
339
100
AcDbEntity
  8
Livello 1
 62
   251
420
  5723990
370
     9
  0
POLYLINE
  5
33D
330
291
100
AcDbEntity
  8
Livello 1
 62
   251
420
  5723990
370
     9
100
AcDb2dPolyline
 66
     1
 10
0.0
 20
0.0
 30
0.0
  0
VERTEX
  5
33E
330
33D
100
AcDbEntity
  8
Livello 1
 62
   251
420
  5723990
370
     9
100
AcDbVertex
100
AcDb2dVertex
 10
14.20053959597447
 20
22.45546880796442
 30
0.0
  0
VERTEX
  5
33F
330
33D
100
AcDbEntity
  8
Livello 1
 62
   251
420
  5723990
370
     9
100
AcDbVertex
100
AcDb2dVertex
 10
14.20053959597447
 20
22.43430165683649
 30
0.0
  0
SEQEND
  5
340
330
33D
100
AcDbEntity
  8
Livello 1
 62
   251
420
  5723990
370
     9
  0
POLYLINE
  5
341
330
291
100
AcDbEntity
  8
Livello 1
 62
   251
420
  5723990
370
     9
100
AcDb2dPolyline
 66
     1
 10
0.0
 20
0.0
 30
0.0
  0
VERTEX
  5
342
330
341
100
AcDbEntity
  8
Livello 1
 62
   251
420
  5723990
370
     9
100
AcDbVertex
100
AcDb2dVertex
 10
14.2217067471024
 20
22.97899143916085
 30
0.0
  0
VERTEX
  5
343
330
341
100
AcDbEntity
  8
Livello 1
 62
   251
420
  5723990
370
     9
100
AcDbVertex
100
AcDb2dVertex
 10
14.2217067471024
 20
22.97899143916085
 30
0.0
  0
VERTEX
  5
344
330
341
100
AcDbEntity
  8
Livello 1
 62
   251
420
  5723990
370
     9
100
AcDbVertex
100
AcDb2dVertex
 10
14.2217067471024
 20
22.9578229422925
 30
0.0
  0
SEQEND
  5
345
330
341
100
AcDbEntity
  8
Livello 1
 62
   251
420
  5723990
370
     9
  0
POLYLINE
  5
346
330
291
100
AcDbEntity
  8
Livello 1
 62
   251
420
  5723990
370
     9
100
AcDb2dPolyline
 66
     1
 10
0.0
 20
0.0
 30
0.0
  0
VERTEX
  5
347
330
346
100
AcDbEntity
  8
Livello 1
 62
   251
420
  5723990
370
     9
100
AcDbVertex
100
AcDb2dVertex
 10
14.2217067471024
 20
22.97899143916085
 30
0.0
  0
VERTEX
  5
348
330
346
100
AcDbEntity
  8
Livello 1
 62
   251
420
  5723990
370
     9
100
AcDbVertex
100
AcDb2dVertex
 10
14.2217067471024
 20
22.45546880796442
 30
0.0
  0
SEQEND
  5
349
330
346
100
AcDbEntity
  8
Livello 1
 62
   251
420
  5723990
370
     9
  0
POLYLINE
  5
34A
330
291
100
AcDbEntity
  8
Livello 1
 62
   251
420
  5723990
370
     9
100
AcDb2dPolyline
 66
     1
 10
0.0
 20
0.0
 30
0.0
  0
VERTEX
  5
34B
330
34A
100
AcDbEntity
  8
Livello 1
 62
   251
420
  5723990
370
     9
100
AcDbVertex
100
AcDb2dVertex
 10
14.2217067471024
 20
22.45546880796442
 30
0.0
  0
VERTEX
  5
34C
330
34A
100
AcDbEntity
  8
Livello 1
 62
   251
420
  5723990
370
     9
100
AcDbVertex
100
AcDb2dVertex
 10
14.2217067471024
 20
22.45546880796442
 30
0.0
  0
VERTEX
  5
34D
330
34A
100
AcDbEntity
  8
Livello 1
 62
   251
420
  5723990
370
     9
100
AcDbVertex
100
AcDb2dVertex
 10
14.24357772047204
 20
22.47099057801398
 30
0.0
  0
VERTEX
  5
34E
330
34A
100
AcDbEntity
  8
Livello 1
 62
   251
420
  5723990
370
     9
100
AcDbVertex
100
AcDb2dVertex
 10
14.28414775703213
 20
22.47663461335193
 30
0.0
  0
VERTEX
  5
34F
330
34A
100
AcDbEntity
  8
Livello 1
 62
   251
420
  5723990
370
     9
100
AcDbVertex
100
AcDb2dVertex
 10
14.30531490816005
 20
22.47663461335193
 30
0.0
  0
VERTEX
  5
350
330
34A
100
AcDbEntity
  8
Livello 1
 62
   251
420
  5723990
370
     9
100
AcDbVertex
100
AcDb2dVertex
 10
14.34729528068442
 20
22.47663461335193
 30
0.0
  0
VERTEX
  5
351
330
34A
100
AcDbEntity
  8
Livello 1
 62
   251
420
  5723990
370
     9
100
AcDbVertex
100
AcDb2dVertex
 10
14.38892306921771
 20
22.47663461335193
 30
0.0
  0
VERTEX
  5
352
330
34A
100
AcDbEntity
  8
Livello 1
 62
   251
420
  5723990
370
     9
100
AcDbVertex
100
AcDb2dVertex
 10
14.42349514070836
 20
22.47381259568295
 30
0.0
  0
VERTEX
  5
353
330
34A
100
AcDbEntity
  8
Livello 1
 62
   251
420
  5723990
370
     9
100
AcDbVertex
100
AcDb2dVertex
 10
14.45171666313851
 20
22.45546880796442
 30
0.0
  0
VERTEX
  5
354
330
34A
100
AcDbEntity
  8
Livello 1
 62
   251
420
  5723990
370
     9
100
AcDbVertex
100
AcDb2dVertex
 10
14.47288381426644
 20
22.45546880796442
 30
0.0
  0
VERTEX
  5
355
330
34A
100
AcDbEntity
  8
Livello 1
 62
   251
420
  5723990
370
     9
100
AcDbVertex
100
AcDb2dVertex
 10
14.4936983814033
 20
22.43430165683649
 30
0.0
  0
SEQEND
  5
356
330
34A
100
AcDbEntity
  8
Livello 1
 62
   251
420
  5723990
370
     9
  0
POLYLINE
  5
357
330
291
100
AcDbEntity
  8
Livello 1
 62
   251
420
  5723990
370
     9
100
AcDb2dPolyline
 66
     1
 10
0.0
 20
0.0
 30
0.0
  0
VERTEX
  5
358
330
357
100
AcDbEntity
  8
Livello 1
 62
   251
420
  5723990
370
     9
100
AcDbVertex
100
AcDb2dVertex
 10
15.44090585322596
 20
5.865388105833458
 30
0.0
  0
VERTEX
  5
359
330
357
100
AcDbEntity
  8
Livello 1
 62
   251
420
  5723990
370
     9
100
AcDbVertex
100
AcDb2dVertex
 10
15.46172042036281
 20
5.865388105833458
 30
0.0
  0
SEQEND
  5
35A
330
357
100
AcDbEntity
  8
Livello 1
 62
   251
420
  5723990
370
     9
  0
POLYLINE
  5
35B
330
291
100
AcDbEntity
  8
Livello 1
 62
   251
420
  5723990
370
     9
100
AcDb2dPolyline
 66
     1
 10
0.0
 20
0.0
 30
0.0
  0
VERTEX
  5
35C
330
35B
100
AcDbEntity
  8
Livello 1
 62
   251
420
  5723990
370
     9
100
AcDbVertex
100
AcDb2dVertex
 10
15.44090585322596
 20
5.865388105833458
 30
0.0
  0
VERTEX
  5
35D
330
35B
100
AcDbEntity
  8
Livello 1
 62
   251
420
  5723990
370
     9
100
AcDbVertex
100
AcDb2dVertex
 10
15.44090585322596
 20
5.425827565426177
 30
0.0
  0
SEQEND
  5
35E
330
35B
100
AcDbEntity
  8
Livello 1
 62
   251
420
  5723990
370
     9
  0
POLYLINE
  5
35F
330
291
100
AcDbEntity
  8
Livello 1
 62
   251
420
  5723990
370
     9
100
AcDb2dPolyline
 66
     1
 10
0.0
 20
0.0
 30
0.0
  0
VERTEX
  5
360
330
35F
100
AcDbEntity
  8
Livello 1
 62
   251
420
  5723990
370
     9
100
AcDbVertex
100
AcDb2dVertex
 10
15.44090585322596
 20
5.425827565426177
 30
0.0
  0
VERTEX
  5
361
330
35F
100
AcDbEntity
  8
Livello 1
 62
   251
420
  5723990
370
     9
100
AcDbVertex
100
AcDb2dVertex
 10
15.46172042036281
 20
5.425827565426177
 30
0.0
  0
SEQEND
  5
362
330
35F
100
AcDbEntity
  8
Livello 1
 62
   251
420
  5723990
370
     9
  0
POLYLINE
  5
363
330
291
100
AcDbEntity
  8
Livello 1
 62
   251
420
  5723990
370
     9
100
AcDb2dPolyline
 66
     1
 10
0.0
 20
0.0
 30
0.0
  0
VERTEX
  5
364
330
363
100
AcDbEntity
  8
Livello 1
 62
   251
420
  5723990
370
     9
100
AcDbVertex
100
AcDb2dVertex
 10
15.44090585322596
 20
5.425827565426177
 30
0.0
  0
VERTEX
  5
365
330
363
100
AcDbEntity
  8
Livello 1
 62
   251
420
  5723990
370
     9
100
AcDbVertex
100
AcDb2dVertex
 10
15.46172042036281
 20
5.425827565426177
 30
0.0
  0
SEQEND
  5
366
330
363
100
AcDbEntity
  8
Livello 1
 62
   251
420
  5723990
370
     9
  0
POLYLINE
  5
367
330
291
100
AcDbEntity
  8
Livello 1
 62
   251
420
  5723990
370
     9
100
AcDb2dPolyline
 66
     1
 10
0.0
 20
0.0
 30
0.0
  0
VERTEX
  5
368
330
367
100
AcDbEntity
  8
Livello 1
 62
   251
420
  5723990
370
     9
100
AcDbVertex
100
AcDb2dVertex
 10
39.8309047811325
 20
5.41312781304559
 30
0.0
  0
VERTEX
  5
369
330
367
100
AcDbEntity
  8
Livello 1
 62
   251
420
  5723990
370
     9
100
AcDbVertex
100
AcDb2dVertex
 10
39.8309047811325
 20
5.91618846109623
 30
0.0
  0
SEQEND
  5
36A
330
367
100
AcDbEntity
  8
Livello 1
 62
   251
420
  5723990
370
     9
  0
POLYLINE
  5
36B
330
291
100
AcDbEntity
  8
Livello 1
 62
   251
420
  5723990
370
     9
100
AcDb2dPolyline
 66
     1
 10
0.0
 20
0.0
 30
0.0
  0
VERTEX
  5
36C
330
36B
100
AcDbEntity
  8
Livello 1
 62
   251
420
  5723990
370
     9
100
AcDbVertex
100
AcDb2dVertex
 10
39.85171800252893
 20
5.91618846109623
 30
0.0
  0
VERTEX
  5
36D
330
36B
100
AcDbEntity
  8
Livello 1
 62
   251
420
  5723990
370
     9
100
AcDbVertex
100
AcDb2dVertex
 10
39.8309047811325
 20
5.91618846109623
 30
0.0
  0
SEQEND
  5
36E
330
36B
100
AcDbEntity
  8
Livello 1
 62
   251
420
  5723990
370
     9
  0
POLYLINE
  5
36F
330
291
100
AcDbEntity
  8
Livello 1
 62
   251
420
  5723990
370
     9
100
AcDb2dPolyline
 66
     1
 10
0.0
 20
0.0
 30
0.0
  0
VERTEX
  5
370
330
36F
100
AcDbEntity
  8
Livello 1
 62
   251
420
  5723990
370
     9
100
AcDbVertex
100
AcDb2dVertex
 10
39.85171800252893
 20
5.41312781304559
 30
0.0
  0
VERTEX
  5
371
330
36F
100
AcDbEntity
  8
Livello 1
 62
   251
420
  5723990
370
     9
100
AcDbVertex
100
AcDb2dVertex
 10
39.8309047811325
 20
5.41312781304559
 30
0.0
  0
SEQEND
  5
372
330
36F
100
AcDbEntity
  8
Livello 1
 62
   251
420
  5723990
370
     9
  0
POLYLINE
  5
373
330
291
100
AcDbEntity
  8
Livello 1
 62
   251
420
  5723990
370
     9
100
AcDb2dPolyline
 66
     1
 10
0.0
 20
0.0
 30
0.0
  0
VERTEX
  5
374
330
373
100
AcDbEntity
  8
Livello 1
 62
   251
420
  5723990
370
     9
100
AcDbVertex
100
AcDb2dVertex
 10
39.85171800252893
 20
5.41312781304559
 30
0.0
  0
VERTEX
  5
375
330
373
100
AcDbEntity
  8
Livello 1
 62
   251
420
  5723990
370
     9
100
AcDbVertex
100
AcDb2dVertex
 10
39.8309047811325
 20
5.41312781304559
 30
0.0
  0
SEQEND
  5
376
330
373
100
AcDbEntity
  8
Livello 1
 62
   251
420
  5723990
370
     9
  0
POLYLINE
  5
377
330
291
100
AcDbEntity
  8
Livello 1
 62
   251
420
  5723990
370
     9
100
AcDb2dPolyline
 66
     1
 10
0.0
 20
0.0
 30
0.0
  0
VERTEX
  5
378
330
377
100
AcDbEntity
  8
Livello 1
 62
   251
420
  5723990
370
     9
100
AcDbVertex
100
AcDb2dVertex
 10
39.80973628426415
 20
5.41312781304559
 30
0.0
  0
VERTEX
  5
379
330
377
100
AcDbEntity
  8
Livello 1
 62
   251
420
  5723990
370
     9
100
AcDbVertex
100
AcDb2dVertex
 10
39.85171800252893
 20
5.41312781304559
 30
0.0
  0
SEQEND
  5
37A
330
377
100
AcDbEntity
  8
Livello 1
 62
   251
420
  5723990
370
     9
  0
POLYLINE
  5
37B
330
291
100
AcDbEntity
  8
Livello 1
 62
   251
420
  5723990
370
     9
100
AcDb2dPolyline
 66
     1
 10
0.0
 20
0.0
 30
0.0
  0
VERTEX
  5
37C
330
37B
100
AcDbEntity
  8
Livello 1
 62
   251
420
  5723990
370
     9
100
AcDbVertex
100
AcDb2dVertex
 10
39.8309047811325
 20
5.41312781304559
 30
0.0
  0
VERTEX
  5
37D
330
37B
100
AcDbEntity
  8
Livello 1
 62
   251
420
  5723990
370
     9
100
AcDbVertex
100
AcDb2dVertex
 10
39.85171800252893
 20
5.41312781304559
 30
0.0
  0
SEQEND
  5
37E
330
37B
100
AcDbEntity
  8
Livello 1
 62
   251
420
  5723990
370
     9
  0
POLYLINE
  5
37F
330
291
100
AcDbEntity
  8
Livello 1
 62
   251
420
  5723990
370
     9
100
AcDb2dPolyline
 66
     1
 10
0.0
 20
0.0
 30
0.0
  0
VERTEX
  5
380
330
37F
100
AcDbEntity
  8
Livello 1
 62
   251
420
  5723990
370
     9
100
AcDbVertex
100
AcDb2dVertex
 10
39.8309047811325
 20
5.91618846109623
 30
0.0
  0
VERTEX
  5
381
330
37F
100
AcDbEntity
  8
Livello 1
 62
   251
420
  5723990
370
     9
100
AcDbVertex
100
AcDb2dVertex
 10
39.8309047811325
 20
5.41312781304559
 30
0.0
  0
SEQEND
  5
382
330
37F
100
AcDbEntity
  8
Livello 1
 62
   251
420
  5723990
370
     9
  0
POLYLINE
  5
383
330
291
100
AcDbEntity
  8
Livello 1
 62
   251
420
  5723990
370
     9
100
AcDb2dPolyline
 66
     1
 10
0.0
 20
0.0
 30
0.0
  0
VERTEX
  5
384
330
383
100
AcDbEntity
  8
Livello 1
 62
   251
420
  5723990
370
     9
100
AcDbVertex
100
AcDb2dVertex
 10
39.80973628426415
 20
5.91618846109623
 30
0.0
  0
VERTEX
  5
385
330
383
100
AcDbEntity
  8
Livello 1
 62
   251
420
  5723990
370
     9
100
AcDbVertex
100
AcDb2dVertex
 10
39.8309047811325
 20
5.91618846109623
 30
0.0
  0
SEQEND
  5
386
330
383
100
AcDbEntity
  8
Livello 1
 62
   251
420
  5723990
370
     9
  0
POLYLINE
  5
387
330
291
100
AcDbEntity
  8
Livello 1
 62
   251
420
  5723990
370
     9
100
AcDb2dPolyline
 66
     1
 10
0.0
 20
0.0
 30
0.0
  0
VERTEX
  5
388
330
387
100
AcDbEntity
  8
Livello 1
 62
   251
420
  5723990
370
     9
100
AcDbVertex
100
AcDb2dVertex
 10
39.80973628426415
 20
5.91618846109623
 30
0.0
  0
VERTEX
  5
389
330
387
100
AcDbEntity
  8
Livello 1
 62
   251
420
  5723990
370
     9
100
AcDbVertex
100
AcDb2dVertex
 10
39.80973628426415
 20
5.41312781304559
 30
0.0
  0
SEQEND
  5
38A
330
387
100
AcDbEntity
  8
Livello 1
 62
   251
420
  5723990
370
     9
  0
POLYLINE
  5
38B
330
291
100
AcDbEntity
  8
Livello 1
 62
   251
420
  5723990
370
     9
100
AcDb2dPolyline
 66
     1
 10
0.0
 20
0.0
 30
0.0
  0
VERTEX
  5
38C
330
38B
100
AcDbEntity
  8
Livello 1
 62
   251
420
  5723990
370
     9
100
AcDbVertex
100
AcDb2dVertex
 10
39.80973628426415
 20
5.41312781304559
 30
0.0
  0
VERTEX
  5
38D
330
38B
100
AcDbEntity
  8
Livello 1
 62
   251
420
  5723990
370
     9
100
AcDbVertex
100
AcDb2dVertex
 10
39.8309047811325
 20
5.41312781304559
 30
0.0
  0
SEQEND
  5
38E
330
38B
100
AcDbEntity
  8
Livello 1
 62
   251
420
  5723990
370
     9
  0
POLYLINE
  5
38F
330
291
100
AcDbEntity
  8
Livello 1
 62
   251
420
  5723990
370
     9
100
AcDb2dPolyline
 66
     1
 10
0.0
 20
0.0
 30
0.0
  0
VERTEX
  5
390
330
38F
100
AcDbEntity
  8
Livello 1
 62
   251
420
  5723990
370
     9
100
AcDbVertex
100
AcDb2dVertex
 10
14.26368711962676
 20
22.3926738683032
 30
0.0
  0
VERTEX
  5
391
330
38F
100
AcDbEntity
  8
Livello 1
 62
   251
420
  5723990
370
     9
100
AcDbVertex
100
AcDb2dVertex
 10
14.26368711962676
 20
22.1623100225356
 30
0.0
  0
SEQEND
  5
392
330
38F
100
AcDbEntity
  8
Livello 1
 62
   251
420
  5723990
370
     9
  0
POLYLINE
  5
393
330
291
100
AcDbEntity
  8
Livello 1
 62
   251
420
  5723990
370
     9
100
AcDb2dPolyline
 66
     1
 10
0.0
 20
0.0
 30
0.0
  0
VERTEX
  5
394
330
393
100
AcDbEntity
  8
Livello 1
 62
   251
420
  5723990
370
     9
100
AcDbVertex
100
AcDb2dVertex
 10
14.41008887460521
 20
22.1623100225356
 30
0.0
  0
VERTEX
  5
395
330
393
100
AcDbEntity
  8
Livello 1
 62
   251
420
  5723990
370
     9
100
AcDbVertex
100
AcDb2dVertex
 10
14.41008887460521
 20
22.3926738683032
 30
0.0
  0
SEQEND
  5
396
330
393
100
AcDbEntity
  8
Livello 1
 62
   251
420
  5723990
370
     9
  0
POLYLINE
  5
397
330
291
100
AcDbEntity
  8
Livello 1
 62
   251
420
  5723990
370
     9
100
AcDb2dPolyline
 66
     1
 10
0.0
 20
0.0
 30
0.0
  0
VERTEX
  5
398
330
397
100
AcDbEntity
  8
Livello 1
 62
   251
420
  5723990
370
     9
100
AcDbVertex
100
AcDb2dVertex
 10
14.34729528068442
 20
22.14114421714809
 30
0.0
  0
VERTEX
  5
399
330
397
100
AcDbEntity
  8
Livello 1
 62
   251
420
  5723990
370
     9
100
AcDbVertex
100
AcDb2dVertex
 10
14.36846108607192
 20
22.14114421714809
 30
0.0
  0
VERTEX
  5
39A
330
397
100
AcDbEntity
  8
Livello 1
 62
   251
420
  5723990
370
     9
100
AcDbVertex
100
AcDb2dVertex
 10
14.38892306921771
 20
22.14114421714809
 30
0.0
  0
VERTEX
  5
39B
330
397
100
AcDbEntity
  8
Livello 1
 62
   251
420
  5723990
370
     9
100
AcDbVertex
100
AcDb2dVertex
 10
14.4040922552762
 20
22.14361365082599
 30
0.0
  0
VERTEX
  5
39C
330
397
100
AcDbEntity
  8
Livello 1
 62
   251
420
  5723990
370
     9
100
AcDbVertex
100
AcDb2dVertex
 10
14.41008887460521
 20
22.1623100225356
 30
0.0
  0
SEQEND
  5
39D
330
397
100
AcDbEntity
  8
Livello 1
 62
   251
420
  5723990
370
     9
  0
POLYLINE
  5
39E
330
291
100
AcDbEntity
  8
Livello 1
 62
   251
420
  5723990
370
     9
100
AcDb2dPolyline
 66
     1
 10
0.0
 20
0.0
 30
0.0
  0
VERTEX
  5
39F
330
39E
100
AcDbEntity
  8
Livello 1
 62
   251
420
  5723990
370
     9
100
AcDbVertex
100
AcDb2dVertex
 10
14.26368711962676
 20
22.1623100225356
 30
0.0
  0
VERTEX
  5
3A0
330
39E
100
AcDbEntity
  8
Livello 1
 62
   251
420
  5723990
370
     9
100
AcDbVertex
100
AcDb2dVertex
 10
14.26368711962676
 20
22.1623100225356
 30
0.0
  0
VERTEX
  5
3A1
330
39E
100
AcDbEntity
  8
Livello 1
 62
   251
420
  5723990
370
     9
100
AcDbVertex
100
AcDb2dVertex
 10
14.28908662438793
 20
22.14678825248604
 30
0.0
  0
VERTEX
  5
3A2
330
39E
100
AcDbEntity
  8
Livello 1
 62
   251
420
  5723990
370
     9
100
AcDbVertex
100
AcDb2dVertex
 10
14.32648071354756
 20
22.14114421714809
 30
0.0
  0
SEQEND
  5
3A3
330
39E
100
AcDbEntity
  8
Livello 1
 62
   251
420
  5723990
370
     9
  0
POLYLINE
  5
3A4
330
291
100
AcDbEntity
  8
Livello 1
 62
   251
420
  5723990
370
     9
100
AcDb2dPolyline
 66
     1
 10
0.0
 20
0.0
 30
0.0
  0
VERTEX
  5
3A5
330
3A4
100
AcDbEntity
  8
Livello 1
 62
   251
420
  5723990
370
     9
100
AcDbVertex
100
AcDb2dVertex
 10
14.20053959597447
 20
22.43430165683649
 30
0.0
  0
VERTEX
  5
3A6
330
3A4
100
AcDbEntity
  8
Livello 1
 62
   251
420
  5723990
370
     9
100
AcDbVertex
100
AcDb2dVertex
 10
14.20053959597447
 20
22.3926738683032
 30
0.0
  0
SEQEND
  5
3A7
330
3A4
100
AcDbEntity
  8
Livello 1
 62
   251
420
  5723990
370
     9
  0
POLYLINE
  5
3A8
330
291
100
AcDbEntity
  8
Livello 1
 62
   251
420
  5723990
370
     9
100
AcDb2dPolyline
 66
     1
 10
0.0
 20
0.0
 30
0.0
  0
VERTEX
  5
3A9
330
3A8
100
AcDbEntity
  8
Livello 1
 62
   251
420
  5723990
370
     9
100
AcDbVertex
100
AcDb2dVertex
 10
14.47288381426644
 20
22.3926738683032
 30
0.0
  0
VERTEX
  5
3AA
330
3A8
100
AcDbEntity
  8
Livello 1
 62
   251
420
  5723990
370
     9
100
AcDbVertex
100
AcDb2dVertex
 10
14.4936983814033
 20
22.43430165683649
 30
0.0
  0
SEQEND
  5
3AB
330
3A8
100
AcDbEntity
  8
Livello 1
 62
   251
420
  5723990
370
     9
  0
POLYLINE
  5
3AC
330
291
100
AcDbEntity
  8
Livello 1
 62
   251
420
  5723990
370
     9
100
AcDb2dPolyline
 66
     1
 10
0.0
 20
0.0
 30
0.0
  0
VERTEX
  5
3AD
330
3AC
100
AcDbEntity
  8
Livello 1
 62
   251
420
  5723990
370
     9
100
AcDbVertex
100
AcDb2dVertex
 10
40.71037844593813
 20
22.06423784340159
 30
0.0
  0
VERTEX
  5
3AE
330
3AC
100
AcDbEntity
  8
Livello 1
 62
   251
420
  5723990
370
     9
100
AcDbVertex
100
AcDb2dVertex
 10
40.83632090925164
 20
6.005088073500763
 30
0.0
  0
SEQEND
  5
3AF
330
3AC
100
AcDbEntity
  8
Livello 1
 62
   251
420
  5723990
370
     9
  0
POLYLINE
  5
3B0
330
291
100
AcDbEntity
  8
Livello 1
 62
   251
420
  5723990
370
     9
100
AcDb2dPolyline
 66
     1
 10
0.0
 20
0.0
 30
0.0
  0
VERTEX
  5
3B1
330
3B0
100
AcDbEntity
  8
Livello 1
 62
   251
420
  5723990
370
     9
100
AcDbVertex
100
AcDb2dVertex
 10
40.98237142597945
 20
6.011791206552337
 30
0.0
  0
VERTEX
  5
3B2
330
3B0
100
AcDbEntity
  8
Livello 1
 62
   251
420
  5723990
370
     9
100
AcDbVertex
100
AcDb2dVertex
 10
40.85713413064808
 20
22.06423784340159
 30
0.0
  0
SEQEND
  5
3B3
330
3B0
100
AcDbEntity
  8
Livello 1
 62
   251
420
  5723990
370
     9
  0
POLYLINE
  5
3B4
330
291
100
AcDbEntity
  8
Livello 1
 62
   251
420
  5723990
370
     9
100
AcDb2dPolyline
 66
     1
 10
0.0
 20
0.0
 30
0.0
  0
VERTEX
  5
3B5
330
3B4
100
AcDbEntity
  8
Livello 1
 62
   251
420
  5723990
370
     9
100
AcDbVertex
100
AcDb2dVertex
 10
14.32648071354756
 20
22.1623100225356
 30
0.0
  0
VERTEX
  5
3B6
330
3B4
100
AcDbEntity
  8
Livello 1
 62
   251
420
  5723990
370
     9
100
AcDbVertex
100
AcDb2dVertex
 10
14.36740333409871
 20
5.865388105833458
 30
0.0
  0
SEQEND
  5
3B7
330
3B4
100
AcDbEntity
  8
Livello 1
 62
   251
420
  5723990
370
     9
  0
POLYLINE
  5
3B8
330
291
100
AcDbEntity
  8
Livello 1
 62
   251
420
  5723990
370
     9
100
AcDb2dPolyline
 66
     1
 10
0.0
 20
0.0
 30
0.0
  0
VERTEX
  5
3B9
330
3B8
100
AcDbEntity
  8
Livello 1
 62
   251
420
  5723990
370
     9
100
AcDbVertex
100
AcDb2dVertex
 10
14.38857048522664
 20
5.865388105833458
 30
0.0
  0
VERTEX
  5
3BA
330
3B8
100
AcDbEntity
  8
Livello 1
 62
   251
420
  5723990
370
     9
100
AcDbVertex
100
AcDb2dVertex
 10
14.34729528068442
 20
22.1623100225356
 30
0.0
  0
SEQEND
  5
3BB
330
3B8
100
AcDbEntity
  8
Livello 1
 62
   251
420
  5723990
370
     9
  0
POLYLINE
  5
3BC
330
291
100
AcDbEntity
  8
Livello 1
 62
   251
420
  5723990
370
     9
100
AcDb2dPolyline
 66
     1
 10
0.0
 20
0.0
 30
0.0
  0
VERTEX
  5
3BD
330
3BC
100
AcDbEntity
  8
Livello 1
 62
   251
420
  5723990
370
     9
100
AcDbVertex
100
AcDb2dVertex
 10
14.2217067471024
 20
22.9578229422925
 30
0.0
  0
VERTEX
  5
3BE
330
3BC
100
AcDbEntity
  8
Livello 1
 62
   251
420
  5723990
370
     9
100
AcDbVertex
100
AcDb2dVertex
 10
14.20053959597447
 20
22.45546880796442
 30
0.0
  0
SEQEND
  5
3BF
330
3BC
100
AcDbEntity
  8
Livello 1
 62
   251
420
  5723990
370
     9
  0
POLYLINE
  5
3C0
330
291
100
AcDbEntity
  8
Livello 1
 62
   251
420
  5723990
370
     9
100
AcDb2dPolyline
 66
     1
 10
0.0
 20
0.0
 30
0.0
  0
VERTEX
  5
3C1
330
3C0
100
AcDbEntity
  8
Livello 1
 62
   251
420
  5723990
370
     9
100
AcDbVertex
100
AcDb2dVertex
 10
14.20053959597447
 20
22.45546880796442
 30
0.0
  0
VERTEX
  5
3C2
330
3C0
100
AcDbEntity
  8
Livello 1
 62
   251
420
  5723990
370
     9
100
AcDbVertex
100
AcDb2dVertex
 10
14.20053959597447
 20
22.45546880796442
 30
0.0
  0
VERTEX
  5
3C3
330
3C0
100
AcDbEntity
  8
Livello 1
 62
   251
420
  5723990
370
     9
100
AcDbVertex
100
AcDb2dVertex
 10
14.20053959597447
 20
22.43430165683649
 30
0.0
  0
SEQEND
  5
3C4
330
3C0
100
AcDbEntity
  8
Livello 1
 62
   251
420
  5723990
370
     9
  0
POLYLINE
  5
3C5
330
291
100
AcDbEntity
  8
Livello 1
 62
   251
420
  5723990
370
     9
100
AcDb2dPolyline
 66
     1
 10
0.0
 20
0.0
 30
0.0
  0
VERTEX
  5
3C6
330
3C5
100
AcDbEntity
  8
Livello 1
 62
   251
420
  5723990
370
     9
100
AcDbVertex
100
AcDb2dVertex
 10
14.2217067471024
 20
22.97899143916085
 30
0.0
  0
VERTEX
  5
3C7
330
3C5
100
AcDbEntity
  8
Livello 1
 62
   251
420
  5723990
370
     9
100
AcDbVertex
100
AcDb2dVertex
 10
14.2217067471024
 20
22.45546880796442
 30
0.0
  0
SEQEND
  5
3C8
330
3C5
100
AcDbEntity
  8
Livello 1
 62
   251
420
  5723990
370
     9
  0
POLYLINE
  5
3C9
330
291
100
AcDbEntity
  8
Livello 1
 62
   251
420
  5723990
370
     9
100
AcDb2dPolyline
 66
     1
 10
0.0
 20
0.0
 30
0.0
  0
VERTEX
  5
3CA
330
3C9
100
AcDbEntity
  8
Livello 1
 62
   251
420
  5723990
370
     9
100
AcDbVertex
100
AcDb2dVertex
 10
14.4936983814033
 20
22.43430165683649
 30
0.0
  0
VERTEX
  5
3CB
330
3C9
100
AcDbEntity
  8
Livello 1
 62
   251
420
  5723990
370
     9
100
AcDbVertex
100
AcDb2dVertex
 10
14.4936983814033
 20
22.97899143916085
 30
0.0
  0
SEQEND
  5
3CC
330
3C9
100
AcDbEntity
  8
Livello 1
 62
   251
420
  5723990
370
     9
  0
POLYLINE
  5
3CD
330
291
100
AcDbEntity
  8
Livello 1
 62
   251
420
  5723990
370
     9
100
AcDb2dPolyline
 66
     1
 10
0.0
 20
0.0
 30
0.0
  0
VERTEX
  5
3CE
330
3CD
100
AcDbEntity
  8
Livello 1
 62
   251
420
  5723990
370
     9
100
AcDbVertex
100
AcDb2dVertex
 10
14.2217067471024
 20
22.97899143916085
 30
0.0
  0
VERTEX
  5
3CF
330
3CD
100
AcDbEntity
  8
Livello 1
 62
   251
420
  5723990
370
     9
100
AcDbVertex
100
AcDb2dVertex
 10
14.2217067471024
 20
22.9578229422925
 30
0.0
  0
SEQEND
  5
3D0
330
3CD
100
AcDbEntity
  8
Livello 1
 62
   251
420
  5723990
370
     9
  0
POLYLINE
  5
3D1
330
291
100
AcDbEntity
  8
Livello 1
370
     0
100
AcDb2dPolyline
 66
     1
 10
0.0
 20
0.0
 30
0.0
  0
VERTEX
  5
3D2
330
3D1
100
AcDbEntity
  8
Livello 1
370
     0
100
AcDbVertex
100
AcDb2dVertex
 10
0.0
 20
0.0
 30
0.0
  0
VERTEX
  5
3D3
330
3D1
100
AcDbEntity
  8
Livello 1
370
     0
100
AcDbVertex
100
AcDb2dVertex
 10
42.33333332275
 20
0.0
 30
0.0
  0
VERTEX
  5
3D4
330
3D1
100
AcDbEntity
  8
Livello 1
370
     0
100
AcDbVertex
100
AcDb2dVertex
 10
42.33333332275
 20
51.15277776498959
 30
0.0
  0
VERTEX
  5
3D5
330
3D1
100
AcDbEntity
  8
Livello 1
370
     0
100
AcDbVertex
100
AcDb2dVertex
 10
0.0
 20
51.15277776498959
 30
0.0
  0
VERTEX
  5
3D6
330
3D1
100
AcDbEntity
  8
Livello 1
370
     0
100
AcDbVertex
100
AcDb2dVertex
 10
0.0
 20
0.0
 30
0.0
  0
SEQEND
  5
3D7
330
3D1
100
AcDbEntity
  8
Livello 1
370
     0
  0
ENDBLK
  5
294
330
291
100
AcDbEntity
  8
0
100
AcDbBlockEnd
  0
BLOCK
  5
3E8
330
3E6
100
AcDbEntity
  8
0
100
AcDbBlockBegin
  2
block 7
 70
     0
 10
0.0
 20
0.0
 30
0.0
  3
block 7
  1

  0
SPLINE
  5
3EA
330
3E6
100
AcDbEntity
  8
Livello 1
 62
   251
420
  5723990
370
     9
100
AcDbSpline
210
0.0
220
0.0
230
1.0
 70
     8
 71
     3
 72
    17
 73
    13
 74
     0
 42
0.0000000001
 43
0.0000000001
 12
1.0
 22
0.0
 32
0.0
 13
1.0
 23
0.0
 33
0.0
 40
0.0
 40
0.0
 40
0.0
 40
0.0
 40
1.0
 40
1.0
 40
1.0
 40
2.0
 40
2.0
 40
2.0
 40
3.0
 40
3.0
 40
3.0
 40
4.0
 40
4.0
 40
4.0
 40
4.0
 10
18.40371084812802
 20
6.856235920993393
 30
0.0
 10
18.29364408459556
 20
6.902096736030146
 30
0.0
 10
18.17546250630683
 20
6.926791072809182
 30
0.0
 10
18.05199082241165
 20
6.926791072809182
 30
0.0
 10
17.45791236652921
 20
6.926791072809182
 30
0.0
 10
16.9760188696065
 20
6.345060458186481
 30
0.0
 10
16.9760188696065
 20
5.62821649569632
 30
0.0
 10
16.9760188696065
 20
4.910313771927634
 30
0.0
 10
17.45791236652921
 20
4.328230236878758
 30
0.0
 10
18.05199082241165
 20
4.328230236878758
 30
0.0
 10
18.16876071899568
 20
4.328230236878758
 30
0.0
 10
18.28129691620605
 20
4.350808060406066
 30
0.0
 10
18.38677739637377
 20
4.39243584893936
 30
0.0
  0
POLYLINE
  5
3EB
330
3E6
100
AcDbEntity
  8
Livello 1
370
     0
100
AcDb2dPolyline
 66
     1
 10
0.0
 20
0.0
 30
0.0
  0
VERTEX
  5
3EC
330
3EB
100
AcDbEntity
  8
Livello 1
370
     0
100
AcDbVertex
100
AcDb2dVertex
 10
0.0
 20
0.0
 30
0.0
  0
VERTEX
  5
3ED
330
3EB
100
AcDbEntity
  8
Livello 1
370
     0
100
AcDbVertex
100
AcDb2dVertex
 10
42.33333332275
 20
0.0
 30
0.0
  0
VERTEX
  5
3EE
330
3EB
100
AcDbEntity
  8
Livello 1
370
     0
100
AcDbVertex
100
AcDb2dVertex
 10
42.33333332275
 20
51.15277776498959
 30
0.0
  0
VERTEX
  5
3EF
330
3EB
100
AcDbEntity
  8
Livello 1
370
     0
100
AcDbVertex
100
AcDb2dVertex
 10
0.0
 20
51.15277776498959
 30
0.0
  0
VERTEX
  5
3F0
330
3EB
100
AcDbEntity
  8
Livello 1
370
     0
100
AcDbVertex
100
AcDb2dVertex
 10
0.0
 20
0.0
 30
0.0
  0
SEQEND
  5
3F1
330
3EB
100
AcDbEntity
  8
Livello 1
370
     0
  0
ENDBLK
  5
3E9
330
3E6
100
AcDbEntity
  8
0
100
AcDbBlockEnd
  0
BLOCK
  5
49B
330
499
100
AcDbEntity
  8
0
100
AcDbBlockBegin
  2
block 8
 70
     0
 10
0.0
 20
0.0
 30
0.0
  3
block 8
  1

  0
SPLINE
  5
49D
330
499
100
AcDbEntity
  8
Livello 1
 62
   251
420
  5723990
370
     9
100
AcDbSpline
210
0.0
220
0.0
230
1.0
 70
     8
 71
     3
 72
    11
 73
     7
 74
     0
 42
0.0000000001
 43
0.0000000001
 12
1.0
 22
0.0
 32
0.0
 13
1.0
 23
0.0
 33
0.0
 40
0.0
 40
0.0
 40
0.0
 40
0.0
 40
1.0
 40
1.0
 40
1.0
 40
2.0
 40
2.0
 40
2.0
 40
2.0
 10
37.61016931653197
 20
21.26064644387985
 30
0.0
 10
37.61016931653197
 20
21.26064644387985
 30
0.0
 10
37.82113027686742
 20
18.70865159096832
 30
0.0
 10
39.13240359705555
 20
16.41524345199496
 30
0.0
 10
40.44367960872453
 20
14.1218353130216
 30
0.0
 10
42.61432123178484
 20
12.35477047717322
 30
0.0
 10
40.61160109882199
 20
6.000890709118538
 30
0.0
  0
MTEXT
  5
49E
330
499
100
AcDbEntity
  8
Livello 1
 62
   251
420
  5723990
100
AcDbMText
 10
1.340516259599717
 20
31.35588106855024
 30
0.0
 40
0.9990666664169
 41
0.0
 46
0.0
 71
     7
 72
     1
  1
\fBrandon Grotesque Medium|b0|i0|c0|p34;\W1;2
 11
-1.608122649676637E-16
 21
1.0
 31
0.0
 73
     1
 44
1.0
  0
POLYLINE
  5
49F
330
499
100
AcDbEntity
  8
Livello 1
370
     0
100
AcDb2dPolyline
 66
     1
 10
0.0
 20
0.0
 30
0.0
  0
VERTEX
  5
4A0
330
49F
100
AcDbEntity
  8
Livello 1
370
     0
100
AcDbVertex
100
AcDb2dVertex
 10
0.0
 20
0.0
 30
0.0
  0
VERTEX
  5
4A1
330
49F
100
AcDbEntity
  8
Livello 1
370
     0
100
AcDbVertex
100
AcDb2dVertex
 10
42.33333332275
 20
0.0
 30
0.0
  0
VERTEX
  5
4A2
330
49F
100
AcDbEntity
  8
Livello 1
370
     0
100
AcDbVertex
100
AcDb2dVertex
 10
42.33333332275
 20
51.15277776498959
 30
0.0
  0
VERTEX
  5
4A3
330
49F
100
AcDbEntity
  8
Livello 1
370
     0
100
AcDbVertex
100
AcDb2dVertex
 10
0.0
 20
51.15277776498959
 30
0.0
  0
VERTEX
  5
4A4
330
49F
100
AcDbEntity
  8
Livello 1
370
     0
100
AcDbVertex
100
AcDb2dVertex
 10
0.0
 20
0.0
 30
0.0
  0
SEQEND
  5
4A5
330
49F
100
AcDbEntity
  8
Livello 1
370
     0
  0
ENDBLK
  5
49C
330
499
100
AcDbEntity
  8
0
100
AcDbBlockEnd
  0
ENDSEC
  0
SECTION
  2
ENTITIES
  0
INSERT
  5
42
330
1F
100
AcDbEntity
  8
Livello 1
100
AcDbBlockReference
  2
block 2
 10
0.0
 20
0.0
 30
0.0
  0
POLYLINE
  5
55
330
1F
100
AcDbEntity
  8
Livello 1
 62
     7
420
 16777215
370
     9
100
AcDb2dPolyline
 66
     1
 10
0.0
 20
0.0
 30
0.0
  0
VERTEX
  5
56
330
55
100
AcDbEntity
  8
Livello 1
 62
     7
420
 16777215
370
     9
100
AcDbVertex
100
AcDb2dVertex
 10
41.94023177899791
 20
28.91366633646055
 30
0.0
  0
VERTEX
  5
57
330
55
100
AcDbEntity
  8
Livello 1
 62
     7
420
 16777215
370
     9
100
AcDbVertex
100
AcDb2dVertex
 10
41.94023177899791
 20
29.97446775746678
 30
0.0
  0
SEQEND
  5
58
330
55
100
AcDbEntity
  8
Livello 1
 62
     7
420
 16777215
370
     9
  0
POLYLINE
  5
59
330
1F
100
AcDbEntity
  8
Livello 1
 62
   251
420
  5723990
370
     9
100
AcDb2dPolyline
 66
     1
 10
0.0
 20
0.0
 30
0.0
  0
VERTEX
  5
5A
330
59
100
AcDbEntity
  8
Livello 1
 62
   251
420
  5723990
370
     9
100
AcDbVertex
100
AcDb2dVertex
 10
4.081568465272095
 20
28.91366633646055
 30
0.0
  0
VERTEX
  5
5B
330
59
100
AcDbEntity
  8
Livello 1
 62
   251
420
  5723990
370
     9
100
AcDbVertex
100
AcDb2dVertex
 10
4.081568465272095
 20
29.97446775746678
 30
0.0
  0
SEQEND
  5
5C
330
59
100
AcDbEntity
  8
Livello 1
 62
   251
420
  5723990
370
     9
  0
MTEXT
  5
5D
330
1F
100
AcDbEntity
  8
Livello 1
 62
   251
420
  5723990
100
AcDbMText
 10
6.272140840445854
 20
34.48953992193317
 30
0.0
 40
0.7604645466572273
 41
0.0
 46
0.0
 71
     7
 72
     1
  1
\fBrandon Grotesque Medium|b0|i0|c0|p34;\W1;360°
 73
     1
 44
1.0
  0
MTEXT
  5
5E
330
1F
100
AcDbEntity
  8
Livello 1
 62
   251
420
  5723990
100
AcDbMText
 10
31.50091958847894
 20
48.04581840161734
 30
0.0
 40
0.7604645466572273
 41
0.0
 46
0.0
 71
     7
 72
     1
  1
\fBrandon Grotesque Medium|b0|i0|c0|p34;\W1;5
 11
-1.608122649676637E-16
 21
1.0
 31
0.0
 73
     1
 44
1.0
  0
MTEXT
  5
5F
330
1F
100
AcDbEntity
  8
Livello 1
 62
   251
420
  5723990
100
AcDbMText
 10
21.65655923937753
 20
28.10474445911965
 30
0.0
 40
0.7604645466572273
 41
0.0
 46
0.0
 71
     7
 72
     1
  1
\fBrandon Grotesque Medium|b0|i0|c0|p34;\W1;195
 73
     1
 44
1.0
  0
POLYLINE
  5
60
330
1F
100
AcDbEntity
  8
Livello 1
 62
   251
420
  5723990
370
     9
100
AcDb2dPolyline
 66
     1
 10
0.0
 20
0.0
 30
0.0
  0
VERTEX
  5
61
330
60
100
AcDbEntity
  8
Livello 1
 62
   251
420
  5723990
370
     9
100
AcDbVertex
100
AcDb2dVertex
 10
30.63836188080206
 20
47.6210488942091
 30
0.0
  0
VERTEX
  5
62
330
60
100
AcDbEntity
  8
Livello 1
 62
   251
420
  5723990
370
     9
100
AcDbVertex
100
AcDb2dVertex
 10
31.69916330180828
 20
47.6210488942091
 30
0.0
  0
SEQEND
  5
63
330
60
100
AcDbEntity
  8
Livello 1
 62
   251
420
  5723990
370
     9
  0
POLYLINE
  5
64
330
1F
100
AcDbEntity
  8
Livello 1
 62
   251
420
  5723990
370
     9
100
AcDb2dPolyline
 66
     1
 10
0.0
 20
0.0
 30
0.0
  0
VERTEX
  5
65
330
64
100
AcDbEntity
  8
Livello 1
 62
   251
420
  5723990
370
     9
100
AcDbVertex
100
AcDb2dVertex
 10
30.63836188080206
 20
48.9846069213476
 30
0.0
  0
VERTEX
  5
66
330
64
100
AcDbEntity
  8
Livello 1
 62
   251
420
  5723990
370
     9
100
AcDbVertex
100
AcDb2dVertex
 10
31.69916330180828
 20
48.9846069213476
 30
0.0
  0
SEQEND
  5
67
330
64
100
AcDbEntity
  8
Livello 1
 62
   251
420
  5723990
370
     9
  0
INSERT
  5
69
330
1F
100
AcDbEntity
  8
Livello 1
100
AcDbBlockReference
  2
block 3
 10
0.0
 20
0.0
 30
0.0
  0
POLYLINE
  5
1C3
330
1F
100
AcDbEntity
  8
Livello 1
370
     0
100
AcDb2dPolyline
 66
     1
 10
0.0
 20
0.0
 30
0.0
  0
VERTEX
  5
1C4
330
1C3
100
AcDbEntity
  8
Livello 1
370
     0
100
AcDbVertex
100
AcDb2dVertex
 10
39.86628698835835
 20
32.7001008057966
 30
0.0
  0
VERTEX
  5
1C5
330
1C3
100
AcDbEntity
  8
Livello 1
370
     0
100
AcDbVertex
100
AcDb2dVertex
 10
40.27162669552563
 20
33.36967126224
 30
0.0
  0
VERTEX
  5
1C6
330
1C3
100
AcDbEntity
  8
Livello 1
370
     0
100
AcDbVertex
100
AcDb2dVertex
 10
40.40356577816815
 20
32.83239247243019
 30
0.0
  0
VERTEX
  5
1C7
330
1C3
100
AcDbEntity
  8
Livello 1
370
     0
100
AcDbVertex
100
AcDb2dVertex
 10
39.86628698835835
 20
32.7001008057966
 30
0.0
  0
SEQEND
  5
1C9
330
1C3
100
AcDbEntity
  8
Livello 1
370
     0
  0
HATCH
  5
1C8
330
1F
100
AcDbEntity
  8
Livello 1
 62
   251
420
  5723990
100
AcDbHatch
 10
0.0
 20
0.0
 30
0.0
210
0.0
220
0.0
230
1.0
  2
SOLID
 70
     1
 71
     0
 91
        1
 92
        1
 93
        3
 72
     1
 10
39.86628698835835
 20
32.7001008057966
 11
40.27162669552563
 21
33.36967126224
 72
     1
 10
40.27162669552563
 20
33.36967126224
 11
40.40356577816815
 21
32.83239247243019
 72
     1
 10
40.40356577816815
 20
32.83239247243019
 11
39.86628698835835
 21
32.7001008057966
 97
        0
 75
     2
 76
     1
 98
        0
  0
POLYLINE
  5
1CA
330
1F
100
AcDbEntity
  8
Livello 1
370
     0
100
AcDb2dPolyline
 66
     1
 10
0.0
 20
0.0
 30
0.0
  0
VERTEX
  5
1CB
330
1CA
100
AcDbEntity
  8
Livello 1
370
     0
100
AcDbVertex
100
AcDb2dVertex
 10
39.85390617645824
 20
30.86999610552984
 30
0.0
  0
VERTEX
  5
1CC
330
1CA
100
AcDbEntity
  8
Livello 1
370
     0
100
AcDbVertex
100
AcDb2dVertex
 10
40.2454870335313
 20
30.19195555885826
 30
0.0
  0
VERTEX
  5
1CD
330
1CA
100
AcDbEntity
  8
Livello 1
370
     0
100
AcDbVertex
100
AcDb2dVertex
 10
40.38871687833056
 20
30.72641367673952
 30
0.0
  0
VERTEX
  5
1CE
330
1CA
100
AcDbEntity
  8
Livello 1
370
     0
100
AcDbVertex
100
AcDb2dVertex
 10
39.85390617645824
 20
30.86999610552984
 30
0.0
  0
SEQEND
  5
1D0
330
1CA
100
AcDbEntity
  8
Livello 1
370
     0
  0
HATCH
  5
1CF
330
1F
100
AcDbEntity
  8
Livello 1
 62
   251
420
  5723990
100
AcDbHatch
 10
0.0
 20
0.0
 30
0.0
210
0.0
220
0.0
230
1.0
  2
SOLID
 70
     1
 71
     0
 91
        1
 92
        1
 93
        3
 72
     1
 10
39.85390617645824
 20
30.86999610552984
 11
40.2454870335313
 21
30.19195555885826
 72
     1
 10
40.2454870335313
 20
30.19195555885826
 11
40.38871687833056
 21
30.72641367673952
 72
     1
 10
40.38871687833056
 20
30.72641367673952
 11
39.85390617645824
 21
30.86999610552984
 97
        0
 75
     2
 76
     1
 98
        0
  0
INSERT
  5
1D2
330
1F
100
AcDbEntity
  8
Livello 1
100
AcDbBlockReference
  2
block 4
 10
0.0
 20
0.0
 30
0.0
  0
POLYLINE
  5
1DD
330
1F
100
AcDbEntity
  8
Livello 1
370
     0
100
AcDb2dPolyline
 66
     1
 10
0.0
 20
0.0
 30
0.0
  0
VERTEX
  5
1DE
330
1DD
100
AcDbEntity
  8
Livello 1
370
     0
100
AcDbVertex
100
AcDb2dVertex
 10
8.638575583523544
 20
32.69685487989409
 30
0.0
  0
VERTEX
  5
1DF
330
1DD
100
AcDbEntity
  8
Livello 1
370
     0
100
AcDbVertex
100
AcDb2dVertex
 10
9.043916636431241
 20
33.36642533633749
 30
0.0
  0
VERTEX
  5
1E0
330
1DD
100
AcDbEntity
  8
Livello 1
370
     0
100
AcDbVertex
100
AcDb2dVertex
 10
9.175503135082698
 20
32.82914654652769
 30
0.0
  0
VERTEX
  5
1E1
330
1DD
100
AcDbEntity
  8
Livello 1
370
     0
100
AcDbVertex
100
AcDb2dVertex
 10
8.638575583523544
 20
32.69685487989409
 30
0.0
  0
SEQEND
  5
1E3
330
1DD
100
AcDbEntity
  8
Livello 1
370
     0
  0
HATCH
  5
1E2
330
1F
100
AcDbEntity
  8
Livello 1
 62
   251
420
  5723990
100
AcDbHatch
 10
0.0
 20
0.0
 30
0.0
210
0.0
220
0.0
230
1.0
  2
SOLID
 70
     1
 71
     0
 91
        1
 92
        1
 93
        3
 72
     1
 10
8.638575583523544
 20
32.69685487989409
 11
9.043916636431241
 21
33.36642533633749
 72
     1
 10
9.043916636431241
 20
33.36642533633749
 11
9.175503135082698
 21
32.82914654652769
 72
     1
 10
9.175503135082698
 20
32.82914654652769
 11
8.638575583523544
 21
32.69685487989409
 97
        0
 75
     2
 76
     1
 98
        0
  0
POLYLINE
  5
1E4
330
1F
100
AcDbEntity
  8
Livello 1
370
     0
100
AcDb2dPolyline
 66
     1
 10
0.0
 20
0.0
 30
0.0
  0
VERTEX
  5
1E5
330
1E4
100
AcDbEntity
  8
Livello 1
370
     0
100
AcDbVertex
100
AcDb2dVertex
 10
8.62615776376177
 20
30.86650256338933
 30
0.0
  0
VERTEX
  5
1E6
330
1E4
100
AcDbEntity
  8
Livello 1
370
     0
100
AcDbVertex
100
AcDb2dVertex
 10
9.017740639445462
 20
30.18846201671775
 30
0.0
  0
VERTEX
  5
1E7
330
1E4
100
AcDbEntity
  8
Livello 1
370
     0
100
AcDbVertex
100
AcDb2dVertex
 10
9.160968465634088
 20
30.72327271859007
 30
0.0
  0
VERTEX
  5
1E8
330
1E4
100
AcDbEntity
  8
Livello 1
370
     0
100
AcDbVertex
100
AcDb2dVertex
 10
8.62615776376177
 20
30.86650256338933
 30
0.0
  0
SEQEND
  5
1EA
330
1E4
100
AcDbEntity
  8
Livello 1
370
     0
  0
HATCH
  5
1E9
330
1F
100
AcDbEntity
  8
Livello 1
 62
   251
420
  5723990
100
AcDbHatch
 10
0.0
 20
0.0
 30
0.0
210
0.0
220
0.0
230
1.0
  2
SOLID
 70
     1
 71
     0
 91
        1
 92
        1
 93
        3
 72
     1
 10
8.62615776376177
 20
30.86650256338933
 11
9.017740639445462
 21
30.18846201671775
 72
     1
 10
9.017740639445462
 20
30.18846201671775
 11
9.160968465634088
 21
30.72327271859007
 72
     1
 10
9.160968465634088
 20
30.72327271859007
 11
8.62615776376177
 21
30.86650256338933
 97
        0
 75
     2
 76
     1
 98
        0
  0
POLYLINE
  5
1EB
330
1F
100
AcDbEntity
  8
Livello 1
 62
   251
420
  5723990
370
     9
100
AcDb2dPolyline
 66
     1
 10
0.0
 20
0.0
 30
0.0
  0
VERTEX
  5
1EC
330
1EB
100
AcDbEntity
  8
Livello 1
 62
   251
420
  5723990
370
     9
100
AcDbVertex
100
AcDb2dVertex
 10
40.71478709156691
 20
48.20824927078485
 30
0.0
  0
VERTEX
  5
1ED
330
1EB
100
AcDbEntity
  8
Livello 1
 62
   251
420
  5723990
370
     9
100
AcDbVertex
100
AcDb2dVertex
 10
40.71478709156691
 20
48.20824927078485
 30
0.0
  0
VERTEX
  5
1EE
330
1EB
100
AcDbEntity
  8
Livello 1
 62
   251
420
  5723990
370
     9
100
AcDbVertex
100
AcDb2dVertex
 10
40.71478709156691
 20
48.22905980070044
 30
0.0
  0
VERTEX
  5
1EF
330
1EB
100
AcDbEntity
  8
Livello 1
 62
   251
420
  5723990
370
     9
100
AcDbVertex
100
AcDb2dVertex
 10
40.73560031296334
 20
48.22905980070044
 30
0.0
  0
VERTEX
  5
1F0
330
1EB
100
AcDbEntity
  8
Livello 1
 62
   251
420
  5723990
370
     9
100
AcDbVertex
100
AcDb2dVertex
 10
40.75641622584063
 20
48.22905980070044
 30
0.0
  0
VERTEX
  5
1F1
330
1EB
100
AcDbEntity
  8
Livello 1
 62
   251
420
  5723990
370
     9
100
AcDbVertex
100
AcDb2dVertex
 10
40.77758203122814
 20
48.22905980070044
 30
0.0
  0
VERTEX
  5
1F2
330
1EB
100
AcDbEntity
  8
Livello 1
 62
   251
420
  5723990
370
     9
100
AcDbVertex
100
AcDb2dVertex
 10
40.79839525262457
 20
48.22905980070044
 30
0.0
  0
VERTEX
  5
1F3
330
1EB
100
AcDbEntity
  8
Livello 1
 62
   251
420
  5723990
370
     9
100
AcDbVertex
100
AcDb2dVertex
 10
40.81991633348399
 20
48.22905980070044
 30
0.0
  0
VERTEX
  5
1F4
330
1EB
100
AcDbEntity
  8
Livello 1
 62
   251
420
  5723990
370
     9
100
AcDbVertex
100
AcDb2dVertex
 10
40.84037697088935
 20
48.22905980070044
 30
0.0
  0
VERTEX
  5
1F5
330
1EB
100
AcDbEntity
  8
Livello 1
 62
   251
420
  5723990
370
     9
100
AcDbVertex
100
AcDb2dVertex
 10
40.86119019228579
 20
48.20824927078485
 30
0.0
  0
SEQEND
  5
1F6
330
1EB
100
AcDbEntity
  8
Livello 1
 62
   251
420
  5723990
370
     9
  0
SPLINE
  5
1F7
330
1F
100
AcDbEntity
  8
Livello 1
 62
   251
420
  5723990
370
     9
100
AcDbSpline
210
0.0
220
0.0
230
1.0
 70
     8
 71
     3
 72
    35
 73
    31
 74
     0
 42
0.0000000001
 43
0.0000000001
 12
1.0
 22
0.0
 32
0.0
 13
1.0
 23
0.0
 33
0.0
 40
0.0
 40
0.0
 40
0.0
 40
0.0
 40
1.0
 40
1.0
 40
1.0
 40
2.0
 40
2.0
 40
2.0
 40
3.0
 40
3.0
 40
3.0
 40
4.0
 40
4.0
 40
4.0
 40
5.0
 40
5.0
 40
5.0
 40
6.0
 40
6.0
 40
6.0
 40
7.0
 40
7.0
 40
7.0
 40
8.0
 40
8.0
 40
8.0
 40
9.0
 40
9.0
 40
9.0
 40
10.0
 40
10.0
 40
10.0
 40
10.0
 10
40.79839525262457
 20
48.18708346539735
 30
0.0
 10
40.79839525262457
 20
48.18708346539735
 30
0.0
 10
40.81991633348399
 20
48.18708346539735
 30
0.0
 10
40.81991633348399
 20
48.18708346539735
 30
0.0
 10
40.81991633348399
 20
48.18708346539735
 30
0.0
 10
40.84037697088935
 20
48.20824927078485
 30
0.0
 10
40.84037697088935
 20
48.20824927078485
 30
0.0
 10
40.84037697088935
 20
48.20824927078485
 30
0.0
 10
40.86119019228579
 20
48.20824927078485
 30
0.0
 10
40.86119019228579
 20
48.20824927078485
 30
0.0
 10
40.86119019228579
 20
48.20824927078485
 30
0.0
 10
40.84037697088935
 20
48.20824927078485
 30
0.0
 10
40.84037697088935
 20
48.20824927078485
 30
0.0
 10
40.84037697088935
 20
48.20824927078485
 30
0.0
 10
40.81991633348399
 20
48.20824927078485
 30
0.0
 10
40.81991633348399
 20
48.20824927078485
 30
0.0
 10
40.81991633348399
 20
48.20824927078485
 30
0.0
 10
40.79839525262457
 20
48.20824927078485
 30
0.0
 10
40.79839525262457
 20
48.20824927078485
 30
0.0
 10
40.79839525262457
 20
48.20824927078485
 30
0.0
 10
40.75641622584063
 20
48.20824927078485
 30
0.0
 10
40.75641622584063
 20
48.20824927078485
 30
0.0
 10
40.75641622584063
 20
48.20824927078485
 30
0.0
 10
40.73560031296334
 20
48.20824927078485
 30
0.0
 10
40.73560031296334
 20
48.20824927078485
 30
0.0
 10
40.73560031296334
 20
48.20824927078485
 30
0.0
 10
40.75641622584063
 20
48.20824927078485
 30
0.0
 10
40.75641622584063
 20
48.20824927078485
 30
0.0
 10
40.75641622584063
 20
48.20824927078485
 30
0.0
 10
40.77758203122814
 20
48.18708346539735
 30
0.0
 10
40.77758203122814
 20
48.18708346539735
 30
0.0
  0
POLYLINE
  5
1F8
330
1F
100
AcDbEntity
  8
Livello 1
 62
   251
420
  5723990
370
     9
100
AcDb2dPolyline
 66
     1
 10
0.0
 20
0.0
 30
0.0
  0
VERTEX
  5
1F9
330
1F8
100
AcDbEntity
  8
Livello 1
 62
   251
420
  5723990
370
     9
100
AcDbVertex
100
AcDb2dVertex
 10
40.67280806478297
 20
49.00411477453283
 30
0.0
  0
VERTEX
  5
1FA
330
1F8
100
AcDbEntity
  8
Livello 1
 62
   251
420
  5723990
370
     9
100
AcDbVertex
100
AcDb2dVertex
 10
40.65163956791462
 20
48.50140536473283
 30
0.0
  0
SEQEND
  5
1FB
330
1F8
100
AcDbEntity
  8
Livello 1
 62
   251
420
  5723990
370
     9
  0
POLYLINE
  5
1FC
330
1F
100
AcDbEntity
  8
Livello 1
 62
   251
420
  5723990
370
     9
100
AcDb2dPolyline
 66
     1
 10
0.0
 20
0.0
 30
0.0
  0
VERTEX
  5
1FD
330
1FC
100
AcDbEntity
  8
Livello 1
 62
   251
420
  5723990
370
     9
100
AcDbVertex
100
AcDb2dVertex
 10
40.94479835334344
 20
49.02493068741011
 30
0.0
  0
VERTEX
  5
1FE
330
1FC
100
AcDbEntity
  8
Livello 1
 62
   251
420
  5723990
370
     9
100
AcDbVertex
100
AcDb2dVertex
 10
40.94479835334344
 20
49.02493068741011
 30
0.0
  0
VERTEX
  5
1FF
330
1FC
100
AcDbEntity
  8
Livello 1
 62
   251
420
  5723990
370
     9
100
AcDbVertex
100
AcDb2dVertex
 10
40.93703612257824
 20
49.04044976597882
 30
0.0
  0
VERTEX
  5
200
330
1FC
100
AcDbEntity
  8
Livello 1
 62
   251
420
  5723990
370
     9
100
AcDbVertex
100
AcDb2dVertex
 10
40.91728065315501
 20
49.04327043790737
 30
0.0
  0
VERTEX
  5
201
330
1FC
100
AcDbEntity
  8
Livello 1
 62
   251
420
  5723990
370
     9
100
AcDbVertex
100
AcDb2dVertex
 10
40.88200341368223
 20
49.04644638530784
 30
0.0
  0
VERTEX
  5
202
330
1FC
100
AcDbEntity
  8
Livello 1
 62
   251
420
  5723990
370
     9
100
AcDbVertex
100
AcDb2dVertex
 10
40.84037697088935
 20
49.04644638530784
 30
0.0
  0
VERTEX
  5
203
330
1FC
100
AcDbEntity
  8
Livello 1
 62
   251
420
  5723990
370
     9
100
AcDbVertex
100
AcDb2dVertex
 10
40.81991633348399
 20
49.04644638530784
 30
0.0
  0
VERTEX
  5
204
330
1FC
100
AcDbEntity
  8
Livello 1
 62
   251
420
  5723990
370
     9
100
AcDbVertex
100
AcDb2dVertex
 10
40.77758203122814
 20
49.04644638530784
 30
0.0
  0
VERTEX
  5
205
330
1FC
100
AcDbEntity
  8
Livello 1
 62
   251
420
  5723990
370
     9
100
AcDbVertex
100
AcDb2dVertex
 10
40.73560031296334
 20
49.04644638530784
 30
0.0
  0
VERTEX
  5
206
330
1FC
100
AcDbEntity
  8
Livello 1
 62
   251
420
  5723990
370
     9
100
AcDbVertex
100
AcDb2dVertex
 10
40.71478709156691
 20
49.04644638530784
 30
0.0
  0
VERTEX
  5
207
330
1FC
100
AcDbEntity
  8
Livello 1
 62
   251
420
  5723990
370
     9
100
AcDbVertex
100
AcDb2dVertex
 10
40.69397387017047
 20
49.04644638530784
 30
0.0
  0
VERTEX
  5
208
330
1FC
100
AcDbEntity
  8
Livello 1
 62
   251
420
  5723990
370
     9
100
AcDbVertex
100
AcDb2dVertex
 10
40.67280806478297
 20
49.02493068741011
 30
0.0
  0
SEQEND
  5
209
330
1FC
100
AcDbEntity
  8
Livello 1
 62
   251
420
  5723990
370
     9
  0
SPLINE
  5
20A
330
1F
100
AcDbEntity
  8
Livello 1
 62
   251
420
  5723990
370
     9
100
AcDbSpline
210
0.0
220
0.0
230
1.0
 70
    24
 71
     3
 72
    20
 73
    16
 74
     0
 42
0.0000000001
 43
0.0000000001
 12
1.0
 22
0.0
 32
0.0
 13
1.0
 23
0.0
 33
0.0
 40
0.0
 40
0.0
 40
0.0
 40
0.0
 40
1.0
 40
1.0
 40
1.0
 40
2.0
 40
2.0
 40
2.0
 40
3.0
 40
3.0
 40
3.0
 40
4.0
 40
4.0
 40
4.0
 40
5.0
 40
5.0
 40
5.0
 40
5.0
 10
40.79839525262457
 20
48.20824927078485
 30
0.0
 10
40.79839525262457
 20
48.20824927078485
 30
0.0
 10
40.81991633348399
 20
48.20824927078485
 30
0.0
 10
40.81991633348399
 20
48.20824927078485
 30
0.0
 10
40.81991633348399
 20
48.20824927078485
 30
0.0
 10
40.79839525262457
 20
48.20824927078485
 30
0.0
 10
40.79839525262457
 20
48.20824927078485
 30
0.0
 10
40.79839525262457
 20
48.20824927078485
 30
0.0
 10
40.77758203122814
 20
48.20824927078485
 30
0.0
 10
40.77758203122814
 20
48.20824927078485
 30
0.0
 10
40.77758203122814
 20
48.20824927078485
 30
0.0
 10
40.75641622584063
 20
48.20824927078485
 30
0.0
 10
40.75641622584063
 20
48.20824927078485
 30
0.0
 10
40.75641622584063
 20
48.20824927078485
 30
0.0
 10
40.77758203122814
 20
48.20824927078485
 30
0.0
 10
40.77758203122814
 20
48.20824927078485
 30
0.0
  0
POLYLINE
  5
20B
330
1F
100
AcDbEntity
  8
Livello 1
 62
   251
420
  5723990
370
     9
100
AcDb2dPolyline
 66
     1
 10
0.0
 20
0.0
 30
0.0
  0
VERTEX
  5
20C
330
20B
100
AcDbEntity
  8
Livello 1
 62
   251
420
  5723990
370
     9
100
AcDbVertex
100
AcDb2dVertex
 10
40.86119019228579
 20
48.41779720367518
 30
0.0
  0
VERTEX
  5
20D
330
20B
100
AcDbEntity
  8
Livello 1
 62
   251
420
  5723990
370
     9
100
AcDbVertex
100
AcDb2dVertex
 10
40.86119019228579
 20
48.41779720367518
 30
0.0
  0
VERTEX
  5
20E
330
20B
100
AcDbEntity
  8
Livello 1
 62
   251
420
  5723990
370
     9
100
AcDbVertex
100
AcDb2dVertex
 10
40.90317191055058
 20
48.41779720367518
 30
0.0
  0
VERTEX
  5
20F
330
20B
100
AcDbEntity
  8
Livello 1
 62
   251
420
  5723990
370
     9
100
AcDbVertex
100
AcDb2dVertex
 10
40.92398513194701
 20
48.43861311655246
 30
0.0
  0
VERTEX
  5
210
330
20B
100
AcDbEntity
  8
Livello 1
 62
   251
420
  5723990
370
     9
100
AcDbVertex
100
AcDb2dVertex
 10
40.90317191055058
 20
48.45977892193996
 30
0.0
  0
VERTEX
  5
211
330
20B
100
AcDbEntity
  8
Livello 1
 62
   251
420
  5723990
370
     9
100
AcDbVertex
100
AcDb2dVertex
 10
40.86119019228579
 20
48.45977892193996
 30
0.0
  0
VERTEX
  5
212
330
20B
100
AcDbEntity
  8
Livello 1
 62
   251
420
  5723990
370
     9
100
AcDbVertex
100
AcDb2dVertex
 10
40.84037697088935
 20
48.45977892193996
 30
0.0
  0
VERTEX
  5
213
330
20B
100
AcDbEntity
  8
Livello 1
 62
   251
420
  5723990
370
     9
100
AcDbVertex
100
AcDb2dVertex
 10
40.79839525262457
 20
48.45977892193996
 30
0.0
  0
VERTEX
  5
214
330
20B
100
AcDbEntity
  8
Livello 1
 62
   251
420
  5723990
370
     9
100
AcDbVertex
100
AcDb2dVertex
 10
40.75641622584063
 20
48.45977892193996
 30
0.0
  0
VERTEX
  5
215
330
20B
100
AcDbEntity
  8
Livello 1
 62
   251
420
  5723990
370
     9
100
AcDbVertex
100
AcDb2dVertex
 10
40.73560031296334
 20
48.45977892193996
 30
0.0
  0
VERTEX
  5
216
330
20B
100
AcDbEntity
  8
Livello 1
 62
   251
420
  5723990
370
     9
100
AcDbVertex
100
AcDb2dVertex
 10
40.69397387017047
 20
48.45977892193996
 30
0.0
  0
VERTEX
  5
217
330
20B
100
AcDbEntity
  8
Livello 1
 62
   251
420
  5723990
370
     9
100
AcDbVertex
100
AcDb2dVertex
 10
40.67280806478297
 20
48.45977892193996
 30
0.0
  0
VERTEX
  5
218
330
20B
100
AcDbEntity
  8
Livello 1
 62
   251
420
  5723990
370
     9
100
AcDbVertex
100
AcDb2dVertex
 10
40.65163956791462
 20
48.45977892193996
 30
0.0
  0
VERTEX
  5
219
330
20B
100
AcDbEntity
  8
Livello 1
 62
   251
420
  5723990
370
     9
100
AcDbVertex
100
AcDb2dVertex
 10
40.65163956791462
 20
48.43861311655246
 30
0.0
  0
VERTEX
  5
21A
330
20B
100
AcDbEntity
  8
Livello 1
 62
   251
420
  5723990
370
     9
100
AcDbVertex
100
AcDb2dVertex
 10
40.65516809930615
 20
48.42520415896846
 30
0.0
  0
VERTEX
  5
21B
330
20B
100
AcDbEntity
  8
Livello 1
 62
   251
420
  5723990
370
     9
100
AcDbVertex
100
AcDb2dVertex
 10
40.67280806478297
 20
48.41779720367518
 30
0.0
  0
VERTEX
  5
21C
330
20B
100
AcDbEntity
  8
Livello 1
 62
   251
420
  5723990
370
     9
100
AcDbVertex
100
AcDb2dVertex
 10
40.71478709156691
 20
48.41779720367518
 30
0.0
  0
SEQEND
  5
21D
330
20B
100
AcDbEntity
  8
Livello 1
 62
   251
420
  5723990
370
     9
  0
POLYLINE
  5
21E
330
1F
100
AcDbEntity
  8
Livello 1
 62
   251
420
  5723990
370
     9
100
AcDb2dPolyline
 66
     1
 10
0.0
 20
0.0
 30
0.0
  0
VERTEX
  5
21F
330
21E
100
AcDbEntity
  8
Livello 1
 62
   251
420
  5723990
370
     9
100
AcDbVertex
100
AcDb2dVertex
 10
40.65163956791462
 20
48.50140536473283
 30
0.0
  0
VERTEX
  5
220
330
21E
100
AcDbEntity
  8
Livello 1
 62
   251
420
  5723990
370
     9
100
AcDbVertex
100
AcDb2dVertex
 10
40.65163956791462
 20
48.48023955934533
 30
0.0
  0
SEQEND
  5
221
330
21E
100
AcDbEntity
  8
Livello 1
 62
   251
420
  5723990
370
     9
  0
POLYLINE
  5
222
330
1F
100
AcDbEntity
  8
Livello 1
 62
   251
420
  5723990
370
     9
100
AcDb2dPolyline
 66
     1
 10
0.0
 20
0.0
 30
0.0
  0
VERTEX
  5
223
330
222
100
AcDbEntity
  8
Livello 1
 62
   251
420
  5723990
370
     9
100
AcDbVertex
100
AcDb2dVertex
 10
40.67280806478297
 20
49.02493068741011
 30
0.0
  0
VERTEX
  5
224
330
222
100
AcDbEntity
  8
Livello 1
 62
   251
420
  5723990
370
     9
100
AcDbVertex
100
AcDb2dVertex
 10
40.67280806478297
 20
49.02493068741011
 30
0.0
  0
VERTEX
  5
225
330
222
100
AcDbEntity
  8
Livello 1
 62
   251
420
  5723990
370
     9
100
AcDbVertex
100
AcDb2dVertex
 10
40.67280806478297
 20
49.00411477453283
 30
0.0
  0
SEQEND
  5
226
330
222
100
AcDbEntity
  8
Livello 1
 62
   251
420
  5723990
370
     9
  0
POLYLINE
  5
227
330
1F
100
AcDbEntity
  8
Livello 1
 62
   251
420
  5723990
370
     9
100
AcDb2dPolyline
 66
     1
 10
0.0
 20
0.0
 30
0.0
  0
VERTEX
  5
228
330
227
100
AcDbEntity
  8
Livello 1
 62
   251
420
  5723990
370
     9
100
AcDbVertex
100
AcDb2dVertex
 10
40.67280806478297
 20
49.02493068741011
 30
0.0
  0
VERTEX
  5
229
330
227
100
AcDbEntity
  8
Livello 1
 62
   251
420
  5723990
370
     9
100
AcDbVertex
100
AcDb2dVertex
 10
40.67280806478297
 20
48.50140536473283
 30
0.0
  0
SEQEND
  5
22A
330
227
100
AcDbEntity
  8
Livello 1
 62
   251
420
  5723990
370
     9
  0
POLYLINE
  5
22B
330
1F
100
AcDbEntity
  8
Livello 1
 62
   251
420
  5723990
370
     9
100
AcDb2dPolyline
 66
     1
 10
0.0
 20
0.0
 30
0.0
  0
VERTEX
  5
22C
330
22B
100
AcDbEntity
  8
Livello 1
 62
   251
420
  5723990
370
     9
100
AcDbVertex
100
AcDb2dVertex
 10
40.67280806478297
 20
48.50140536473283
 30
0.0
  0
VERTEX
  5
22D
330
22B
100
AcDbEntity
  8
Livello 1
 62
   251
420
  5723990
370
     9
100
AcDbVertex
100
AcDb2dVertex
 10
40.67280806478297
 20
48.50140536473283
 30
0.0
  0
VERTEX
  5
22E
330
22B
100
AcDbEntity
  8
Livello 1
 62
   251
420
  5723990
370
     9
100
AcDbVertex
100
AcDb2dVertex
 10
40.69467903815261
 20
48.51692982626324
 30
0.0
  0
VERTEX
  5
22F
330
22B
100
AcDbEntity
  8
Livello 1
 62
   251
420
  5723990
370
     9
100
AcDbVertex
100
AcDb2dVertex
 10
40.73560031296334
 20
48.52292644559225
 30
0.0
  0
VERTEX
  5
230
330
22B
100
AcDbEntity
  8
Livello 1
 62
   251
420
  5723990
370
     9
100
AcDbVertex
100
AcDb2dVertex
 10
40.75641622584063
 20
48.52292644559225
 30
0.0
  0
VERTEX
  5
231
330
22B
100
AcDbEntity
  8
Livello 1
 62
   251
420
  5723990
370
     9
100
AcDbVertex
100
AcDb2dVertex
 10
40.79839525262457
 20
48.52292644559225
 30
0.0
  0
VERTEX
  5
232
330
22B
100
AcDbEntity
  8
Livello 1
 62
   251
420
  5723990
370
     9
100
AcDbVertex
100
AcDb2dVertex
 10
40.84037697088935
 20
48.52292644559225
 30
0.0
  0
VERTEX
  5
233
330
22B
100
AcDbEntity
  8
Livello 1
 62
   251
420
  5723990
370
     9
100
AcDbVertex
100
AcDb2dVertex
 10
40.87459645838894
 20
48.51975049819179
 30
0.0
  0
VERTEX
  5
234
330
22B
100
AcDbEntity
  8
Livello 1
 62
   251
420
  5723990
370
     9
100
AcDbVertex
100
AcDb2dVertex
 10
40.90317191055058
 20
48.50140536473283
 30
0.0
  0
VERTEX
  5
235
330
22B
100
AcDbEntity
  8
Livello 1
 62
   251
420
  5723990
370
     9
100
AcDbVertex
100
AcDb2dVertex
 10
40.92398513194701
 20
48.50140536473283
 30
0.0
  0
VERTEX
  5
236
330
22B
100
AcDbEntity
  8
Livello 1
 62
   251
420
  5723990
370
     9
100
AcDbVertex
100
AcDb2dVertex
 10
40.94479835334344
 20
48.48023955934533
 30
0.0
  0
SEQEND
  5
237
330
22B
100
AcDbEntity
  8
Livello 1
 62
   251
420
  5723990
370
     9
  0
POLYLINE
  5
238
330
1F
100
AcDbEntity
  8
Livello 1
 62
   251
420
  5723990
370
     9
100
AcDb2dPolyline
 66
     1
 10
0.0
 20
0.0
 30
0.0
  0
VERTEX
  5
239
330
238
100
AcDbEntity
  8
Livello 1
 62
   251
420
  5723990
370
     9
100
AcDbVertex
100
AcDb2dVertex
 10
40.71478709156691
 20
48.43861311655246
 30
0.0
  0
VERTEX
  5
23A
330
238
100
AcDbEntity
  8
Livello 1
 62
   251
420
  5723990
370
     9
100
AcDbVertex
100
AcDb2dVertex
 10
40.71478709156691
 20
48.20824927078485
 30
0.0
  0
SEQEND
  5
23B
330
238
100
AcDbEntity
  8
Livello 1
 62
   251
420
  5723990
370
     9
  0
POLYLINE
  5
23C
330
1F
100
AcDbEntity
  8
Livello 1
 62
   251
420
  5723990
370
     9
100
AcDb2dPolyline
 66
     1
 10
0.0
 20
0.0
 30
0.0
  0
VERTEX
  5
23D
330
23C
100
AcDbEntity
  8
Livello 1
 62
   251
420
  5723990
370
     9
100
AcDbVertex
100
AcDb2dVertex
 10
40.86119019228579
 20
48.20824927078485
 30
0.0
  0
VERTEX
  5
23E
330
23C
100
AcDbEntity
  8
Livello 1
 62
   251
420
  5723990
370
     9
100
AcDbVertex
100
AcDb2dVertex
 10
40.86119019228579
 20
48.43861311655246
 30
0.0
  0
SEQEND
  5
23F
330
23C
100
AcDbEntity
  8
Livello 1
 62
   251
420
  5723990
370
     9
  0
POLYLINE
  5
240
330
1F
100
AcDbEntity
  8
Livello 1
 62
   251
420
  5723990
370
     9
100
AcDb2dPolyline
 66
     1
 10
0.0
 20
0.0
 30
0.0
  0
VERTEX
  5
241
330
240
100
AcDbEntity
  8
Livello 1
 62
   251
420
  5723990
370
     9
100
AcDbVertex
100
AcDb2dVertex
 10
40.79839525262457
 20
48.18708346539735
 30
0.0
  0
VERTEX
  5
242
330
240
100
AcDbEntity
  8
Livello 1
 62
   251
420
  5723990
370
     9
100
AcDbVertex
100
AcDb2dVertex
 10
40.81991633348399
 20
48.18708346539735
 30
0.0
  0
VERTEX
  5
243
330
240
100
AcDbEntity
  8
Livello 1
 62
   251
420
  5723990
370
     9
100
AcDbVertex
100
AcDb2dVertex
 10
40.84037697088935
 20
48.18708346539735
 30
0.0
  0
VERTEX
  5
244
330
240
100
AcDbEntity
  8
Livello 1
 62
   251
420
  5723990
370
     9
100
AcDbVertex
100
AcDb2dVertex
 10
40.85519357295678
 20
48.18954886185398
 30
0.0
  0
VERTEX
  5
245
330
240
100
AcDbEntity
  8
Livello 1
 62
   251
420
  5723990
370
     9
100
AcDbVertex
100
AcDb2dVertex
 10
40.86119019228579
 20
48.20824927078485
 30
0.0
  0
SEQEND
  5
246
330
240
100
AcDbEntity
  8
Livello 1
 62
   251
420
  5723990
370
     9
  0
POLYLINE
  5
247
330
1F
100
AcDbEntity
  8
Livello 1
 62
   251
420
  5723990
370
     9
100
AcDb2dPolyline
 66
     1
 10
0.0
 20
0.0
 30
0.0
  0
VERTEX
  5
248
330
247
100
AcDbEntity
  8
Livello 1
 62
   251
420
  5723990
370
     9
100
AcDbVertex
100
AcDb2dVertex
 10
40.71478709156691
 20
48.20824927078485
 30
0.0
  0
VERTEX
  5
249
330
247
100
AcDbEntity
  8
Livello 1
 62
   251
420
  5723990
370
     9
100
AcDbVertex
100
AcDb2dVertex
 10
40.71478709156691
 20
48.20824927078485
 30
0.0
  0
VERTEX
  5
24A
330
247
100
AcDbEntity
  8
Livello 1
 62
   251
420
  5723990
370
     9
100
AcDbVertex
100
AcDb2dVertex
 10
40.74053918031915
 20
48.19272480925445
 30
0.0
  0
VERTEX
  5
24B
330
247
100
AcDbEntity
  8
Livello 1
 62
   251
420
  5723990
370
     9
100
AcDbVertex
100
AcDb2dVertex
 10
40.77758203122814
 20
48.18708346539735
 30
0.0
  0
SEQEND
  5
24C
330
247
100
AcDbEntity
  8
Livello 1
 62
   251
420
  5723990
370
     9
  0
POLYLINE
  5
24D
330
1F
100
AcDbEntity
  8
Livello 1
 62
   251
420
  5723990
370
     9
100
AcDb2dPolyline
 66
     1
 10
0.0
 20
0.0
 30
0.0
  0
VERTEX
  5
24E
330
24D
100
AcDbEntity
  8
Livello 1
 62
   251
420
  5723990
370
     9
100
AcDbVertex
100
AcDb2dVertex
 10
40.65163956791462
 20
48.48023955934533
 30
0.0
  0
VERTEX
  5
24F
330
24D
100
AcDbEntity
  8
Livello 1
 62
   251
420
  5723990
370
     9
100
AcDbVertex
100
AcDb2dVertex
 10
40.65163956791462
 20
48.43861311655246
 30
0.0
  0
SEQEND
  5
250
330
24D
100
AcDbEntity
  8
Livello 1
 62
   251
420
  5723990
370
     9
  0
POLYLINE
  5
251
330
1F
100
AcDbEntity
  8
Livello 1
 62
   251
420
  5723990
370
     9
100
AcDb2dPolyline
 66
     1
 10
0.0
 20
0.0
 30
0.0
  0
VERTEX
  5
252
330
251
100
AcDbEntity
  8
Livello 1
 62
   251
420
  5723990
370
     9
100
AcDbVertex
100
AcDb2dVertex
 10
40.92398513194701
 20
48.43861311655246
 30
0.0
  0
VERTEX
  5
253
330
251
100
AcDbEntity
  8
Livello 1
 62
   251
420
  5723990
370
     9
100
AcDbVertex
100
AcDb2dVertex
 10
40.94479835334344
 20
48.48023955934533
 30
0.0
  0
SEQEND
  5
254
330
251
100
AcDbEntity
  8
Livello 1
 62
   251
420
  5723990
370
     9
  0
POLYLINE
  5
255
330
1F
100
AcDbEntity
  8
Livello 1
 62
   251
420
  5723990
370
     9
100
AcDb2dPolyline
 66
     1
 10
0.0
 20
0.0
 30
0.0
  0
VERTEX
  5
256
330
255
100
AcDbEntity
  8
Livello 1
 62
   251
420
  5723990
370
     9
100
AcDbVertex
100
AcDb2dVertex
 10
40.67280806478297
 20
49.00411477453283
 30
0.0
  0
VERTEX
  5
257
330
255
100
AcDbEntity
  8
Livello 1
 62
   251
420
  5723990
370
     9
100
AcDbVertex
100
AcDb2dVertex
 10
40.65163956791462
 20
48.50140536473283
 30
0.0
  0
SEQEND
  5
258
330
255
100
AcDbEntity
  8
Livello 1
 62
   251
420
  5723990
370
     9
  0
POLYLINE
  5
259
330
1F
100
AcDbEntity
  8
Livello 1
 62
   251
420
  5723990
370
     9
100
AcDb2dPolyline
 66
     1
 10
0.0
 20
0.0
 30
0.0
  0
VERTEX
  5
25A
330
259
100
AcDbEntity
  8
Livello 1
 62
   251
420
  5723990
370
     9
100
AcDbVertex
100
AcDb2dVertex
 10
40.65163956791462
 20
48.50140536473283
 30
0.0
  0
VERTEX
  5
25B
330
259
100
AcDbEntity
  8
Livello 1
 62
   251
420
  5723990
370
     9
100
AcDbVertex
100
AcDb2dVertex
 10
40.65163956791462
 20
48.50140536473283
 30
0.0
  0
VERTEX
  5
25C
330
259
100
AcDbEntity
  8
Livello 1
 62
   251
420
  5723990
370
     9
100
AcDbVertex
100
AcDb2dVertex
 10
40.65163956791462
 20
48.48023955934533
 30
0.0
  0
SEQEND
  5
25D
330
259
100
AcDbEntity
  8
Livello 1
 62
   251
420
  5723990
370
     9
  0
POLYLINE
  5
25E
330
1F
100
AcDbEntity
  8
Livello 1
 62
   251
420
  5723990
370
     9
100
AcDb2dPolyline
 66
     1
 10
0.0
 20
0.0
 30
0.0
  0
VERTEX
  5
25F
330
25E
100
AcDbEntity
  8
Livello 1
 62
   251
420
  5723990
370
     9
100
AcDbVertex
100
AcDb2dVertex
 10
40.67280806478297
 20
49.02493068741011
 30
0.0
  0
VERTEX
  5
260
330
25E
100
AcDbEntity
  8
Livello 1
 62
   251
420
  5723990
370
     9
100
AcDbVertex
100
AcDb2dVertex
 10
40.67280806478297
 20
48.50140536473283
 30
0.0
  0
SEQEND
  5
261
330
25E
100
AcDbEntity
  8
Livello 1
 62
   251
420
  5723990
370
     9
  0
POLYLINE
  5
262
330
1F
100
AcDbEntity
  8
Livello 1
 62
   251
420
  5723990
370
     9
100
AcDb2dPolyline
 66
     1
 10
0.0
 20
0.0
 30
0.0
  0
VERTEX
  5
263
330
262
100
AcDbEntity
  8
Livello 1
 62
   251
420
  5723990
370
     9
100
AcDbVertex
100
AcDb2dVertex
 10
40.94479835334344
 20
48.48023955934533
 30
0.0
  0
VERTEX
  5
264
330
262
100
AcDbEntity
  8
Livello 1
 62
   251
420
  5723990
370
     9
100
AcDbVertex
100
AcDb2dVertex
 10
40.94479835334344
 20
49.02493068741011
 30
0.0
  0
SEQEND
  5
265
330
262
100
AcDbEntity
  8
Livello 1
 62
   251
420
  5723990
370
     9
  0
POLYLINE
  5
266
330
1F
100
AcDbEntity
  8
Livello 1
 62
   251
420
  5723990
370
     9
100
AcDb2dPolyline
 66
     1
 10
0.0
 20
0.0
 30
0.0
  0
VERTEX
  5
267
330
266
100
AcDbEntity
  8
Livello 1
 62
   251
420
  5723990
370
     9
100
AcDbVertex
100
AcDb2dVertex
 10
40.67280806478297
 20
49.02493068741011
 30
0.0
  0
VERTEX
  5
268
330
266
100
AcDbEntity
  8
Livello 1
 62
   251
420
  5723990
370
     9
100
AcDbVertex
100
AcDb2dVertex
 10
40.67280806478297
 20
49.00411477453283
 30
0.0
  0
SEQEND
  5
269
330
266
100
AcDbEntity
  8
Livello 1
 62
   251
420
  5723990
370
     9
  0
MTEXT
  5
26A
330
1F
100
AcDbEntity
  8
Livello 1
 62
   251
420
  5723990
100
AcDbMText
 10
35.4248833461785
 20
33.52043456193239
 30
0.0
 40
0.7604645466572273
 41
0.0
 46
0.0
 71
     7
 72
     1
  1
\fBrandon Grotesque Medium|b0|i0|c0|p34;\W1;360°
 73
     1
 44
1.0
  0
POLYLINE
  5
26B
330
1F
100
AcDbEntity
  8
Livello 1
 62
   251
420
  5723990
370
     9
100
AcDb2dPolyline
 66
     1
 10
0.0
 20
0.0
 30
0.0
  0
VERTEX
  5
26C
330
26B
100
AcDbEntity
  8
Livello 1
 62
   251
420
  5723990
370
     9
100
AcDbVertex
100
AcDb2dVertex
 10
32.55045177917521
 20
47.66133497953975
 30
0.0
  0
VERTEX
  5
26D
330
26B
100
AcDbEntity
  8
Livello 1
 62
   251
420
  5723990
370
     9
100
AcDbVertex
100
AcDb2dVertex
 10
38.71594807398665
 20
47.66133497953975
 30
0.0
  0
VERTEX
  5
26E
330
26B
100
AcDbEntity
  8
Livello 1
 62
   251
420
  5723990
370
     9
100
AcDbVertex
100
AcDb2dVertex
 10
38.71594807398665
 20
49.03152481548734
 30
0.0
  0
VERTEX
  5
26F
330
26B
100
AcDbEntity
  8
Livello 1
 62
   251
420
  5723990
370
     9
100
AcDbVertex
100
AcDb2dVertex
 10
32.55045177917521
 20
49.03152481548734
 30
0.0
  0
VERTEX
  5
270
330
26B
100
AcDbEntity
  8
Livello 1
 62
   251
420
  5723990
370
     9
100
AcDbVertex
100
AcDb2dVertex
 10
32.55045177917521
 20
47.66133497953975
 30
0.0
  0
SEQEND
  5
271
330
26B
100
AcDbEntity
  8
Livello 1
 62
   251
420
  5723990
370
     9
  0
INSERT
  5
273
330
1F
100
AcDbEntity
  8
Livello 1
100
AcDbBlockReference
  2
block 5
 10
0.0
 20
0.0
 30
0.0
  0
MTEXT
  5
27E
330
1F
100
AcDbEntity
  8
Livello 1
 62
   251
420
  5723990
100
AcDbMText
 10
10.20402831776181
 20
5.144905597672107
 30
0.0
 40
0.7604645466572273
 41
0.0
 46
0.0
 71
     7
 72
     1
  1
\fBrandon Grotesque Medium|b0|i0|c0|p34;\W1;2
 11
-1.608122649676637E-16
 21
1.0
 31
0.0
 73
     1
 44
1.0
  0
POLYLINE
  5
27F
330
1F
100
AcDbEntity
  8
Livello 1
 62
     7
420
 16777215
370
     9
100
AcDb2dPolyline
 66
     1
 10
0.0
 20
0.0
 30
0.0
  0
VERTEX
  5
280
330
27F
100
AcDbEntity
  8
Livello 1
 62
     7
420
 16777215
370
     9
100
AcDbVertex
100
AcDb2dVertex
 10
41.94023177899791
 20
2.758933899772523
 30
0.0
  0
VERTEX
  5
281
330
27F
100
AcDbEntity
  8
Livello 1
 62
     7
420
 16777215
370
     9
100
AcDbVertex
100
AcDb2dVertex
 10
41.94023177899791
 20
3.819736498301624
 30
0.0
  0
SEQEND
  5
282
330
27F
100
AcDbEntity
  8
Livello 1
 62
     7
420
 16777215
370
     9
  0
POLYLINE
  5
283
330
1F
100
AcDbEntity
  8
Livello 1
 62
     7
420
 16777215
370
     9
100
AcDb2dPolyline
 66
     1
 10
0.0
 20
0.0
 30
0.0
  0
VERTEX
  5
284
330
283
100
AcDbEntity
  8
Livello 1
 62
     7
420
 16777215
370
     9
100
AcDbVertex
100
AcDb2dVertex
 10
13.59623216712978
 20
2.758933899772523
 30
0.0
  0
VERTEX
  5
285
330
283
100
AcDbEntity
  8
Livello 1
 62
     7
420
 16777215
370
     9
100
AcDbVertex
100
AcDb2dVertex
 10
13.59623216712978
 20
3.819736498301624
 30
0.0
  0
SEQEND
  5
286
330
283
100
AcDbEntity
  8
Livello 1
 62
     7
420
 16777215
370
     9
  0
MTEXT
  5
287
330
1F
100
AcDbEntity
  8
Livello 1
 62
   251
420
  5723990
100
AcDbMText
 10
15.78680555160886
 20
8.334719507464932
 30
0.0
 40
0.7604645466572273
 41
0.0
 46
0.0
 71
     7
 72
     1
  1
\fBrandon Grotesque Medium|b0|i0|c0|p34;\W1;360°
 73
     1
 44
1.0
  0
MTEXT
  5
288
330
1F
100
AcDbEntity
  8
Livello 1
 62
   251
420
  5723990
100
AcDbMText
 10
26.22372232417324
 20
1.950268554199933
 30
0.0
 40
0.7604645466572273
 41
0.0
 46
0.0
 71
     7
 72
     1
  1
\fBrandon Grotesque Medium|b0|i0|c0|p34;\W1;130
 73
     1
 44
1.0
  0
POLYLINE
  5
289
330
1F
100
AcDbEntity
  8
Livello 1
 62
     7
420
 16777215
370
     9
100
AcDb2dPolyline
 66
     1
 10
0.0
 20
0.0
 30
0.0
  0
VERTEX
  5
28A
330
289
100
AcDbEntity
  8
Livello 1
 62
     7
420
 16777215
370
     9
100
AcDbVertex
100
AcDb2dVertex
 10
11.37158059789563
 20
5.36874865821558
 30
0.0
  0
VERTEX
  5
28B
330
289
100
AcDbEntity
  8
Livello 1
 62
     7
420
 16777215
370
     9
100
AcDbVertex
100
AcDb2dVertex
 10
12.43238336464228
 20
5.36874865821558
 30
0.0
  0
SEQEND
  5
28C
330
289
100
AcDbEntity
  8
Livello 1
 62
     7
420
 16777215
370
     9
  0
POLYLINE
  5
28D
330
1F
100
AcDbEntity
  8
Livello 1
 62
     7
420
 16777215
370
     9
100
AcDb2dPolyline
 66
     1
 10
0.0
 20
0.0
 30
0.0
  0
VERTEX
  5
28E
330
28D
100
AcDbEntity
  8
Livello 1
 62
     7
420
 16777215
370
     9
100
AcDbVertex
100
AcDb2dVertex
 10
11.37158059789563
 20
5.711613039072314
 30
0.0
  0
VERTEX
  5
28F
330
28D
100
AcDbEntity
  8
Livello 1
 62
     7
420
 16777215
370
     9
100
AcDbVertex
100
AcDb2dVertex
 10
12.43238336464228
 20
5.711613039072314
 30
0.0
  0
SEQEND
  5
290
330
28D
100
AcDbEntity
  8
Livello 1
 62
     7
420
 16777215
370
     9
  0
INSERT
  5
292
330
1F
100
AcDbEntity
  8
Livello 1
100
AcDbBlockReference
  2
block 6
 10
0.0
 20
0.0
 30
0.0
  0
POLYLINE
  5
3D8
330
1F
100
AcDbEntity
  8
Livello 1
370
     0
100
AcDb2dPolyline
 66
     1
 10
0.0
 20
0.0
 30
0.0
  0
VERTEX
  5
3D9
330
3D8
100
AcDbEntity
  8
Livello 1
370
     0
100
AcDbVertex
100
AcDb2dVertex
 10
39.86628698835835
 20
6.545297885953873
 30
0.0
  0
VERTEX
  5
3DA
330
3D8
100
AcDbEntity
  8
Livello 1
370
     0
100
AcDbVertex
100
AcDb2dVertex
 10
40.27162669552563
 20
7.214869688137689
 30
0.0
  0
VERTEX
  5
3DB
330
3D8
100
AcDbEntity
  8
Livello 1
370
     0
100
AcDbVertex
100
AcDb2dVertex
 10
40.40356577816815
 20
6.677589552587466
 30
0.0
  0
VERTEX
  5
3DC
330
3D8
100
AcDbEntity
  8
Livello 1
370
     0
100
AcDbVertex
100
AcDb2dVertex
 10
39.86628698835835
 20
6.545297885953873
 30
0.0
  0
SEQEND
  5
3DE
330
3D8
100
AcDbEntity
  8
Livello 1
370
     0
  0
HATCH
  5
3DD
330
1F
100
AcDbEntity
  8
Livello 1
 62
   251
420
  5723990
100
AcDbHatch
 10
0.0
 20
0.0
 30
0.0
210
0.0
220
0.0
230
1.0
  2
SOLID
 70
     1
 71
     0
 91
        1
 92
        1
 93
        3
 72
     1
 10
39.86628698835835
 20
6.545297885953873
 11
40.27162669552563
 21
7.214869688137689
 72
     1
 10
40.27162669552563
 20
7.214869688137689
 11
40.40356577816815
 21
6.677589552587466
 72
     1
 10
40.40356577816815
 20
6.677589552587466
 11
39.86628698835835
 21
6.545297885953873
 97
        0
 75
     2
 76
     1
 98
        0
  0
POLYLINE
  5
3DF
330
1F
100
AcDbEntity
  8
Livello 1
370
     0
100
AcDb2dPolyline
 66
     1
 10
0.0
 20
0.0
 30
0.0
  0
VERTEX
  5
3E0
330
3DF
100
AcDbEntity
  8
Livello 1
370
     0
100
AcDbVertex
100
AcDb2dVertex
 10
39.85390617645824
 20
4.715192512816903
 30
0.0
  0
VERTEX
  5
3E1
330
3DF
100
AcDbEntity
  8
Livello 1
370
     0
100
AcDbVertex
100
AcDb2dVertex
 10
40.2454870335313
 20
4.037153311885745
 30
0.0
  0
VERTEX
  5
3E2
330
3DF
100
AcDbEntity
  8
Livello 1
370
     0
100
AcDbVertex
100
AcDb2dVertex
 10
40.38871687833056
 20
4.571611766202102
 30
0.0
  0
VERTEX
  5
3E3
330
3DF
100
AcDbEntity
  8
Livello 1
370
     0
100
AcDbVertex
100
AcDb2dVertex
 10
39.85390617645824
 20
4.715192512816903
 30
0.0
  0
SEQEND
  5
3E5
330
3DF
100
AcDbEntity
  8
Livello 1
370
     0
  0
HATCH
  5
3E4
330
1F
100
AcDbEntity
  8
Livello 1
 62
   251
420
  5723990
100
AcDbHatch
 10
0.0
 20
0.0
 30
0.0
210
0.0
220
0.0
230
1.0
  2
SOLID
 70
     1
 71
     0
 91
        1
 92
        1
 93
        3
 72
     1
 10
39.85390617645824
 20
4.715192512816903
 11
40.2454870335313
 21
4.037153311885745
 72
     1
 10
40.2454870335313
 20
4.037153311885745
 11
40.38871687833056
 21
4.571611766202102
 72
     1
 10
40.38871687833056
 20
4.571611766202102
 11
39.85390617645824
 21
4.715192512816903
 97
        0
 75
     2
 76
     1
 98
        0
  0
INSERT
  5
3E7
330
1F
100
AcDbEntity
  8
Livello 1
100
AcDbBlockReference
  2
block 7
 10
0.0
 20
0.0
 30
0.0
  0
POLYLINE
  5
3F2
330
1F
100
AcDbEntity
  8
Livello 1
370
     0
100
AcDb2dPolyline
 66
     1
 10
0.0
 20
0.0
 30
0.0
  0
VERTEX
  5
3F3
330
3F2
100
AcDbEntity
  8
Livello 1
370
     0
100
AcDbVertex
100
AcDb2dVertex
 10
18.15323894894612
 20
6.542087622172597
 30
0.0
  0
VERTEX
  5
3F4
330
3F2
100
AcDbEntity
  8
Livello 1
370
     0
100
AcDbVertex
100
AcDb2dVertex
 10
18.55858000185382
 20
7.211659424356414
 30
0.0
  0
VERTEX
  5
3F5
330
3F2
100
AcDbEntity
  8
Livello 1
370
     0
100
AcDbVertex
100
AcDb2dVertex
 10
18.69016650050527
 20
6.674379288806191
 30
0.0
  0
VERTEX
  5
3F6
330
3F2
100
AcDbEntity
  8
Livello 1
370
     0
100
AcDbVertex
100
AcDb2dVertex
 10
18.15323894894612
 20
6.542087622172597
 30
0.0
  0
SEQEND
  5
3F8
330
3F2
100
AcDbEntity
  8
Livello 1
370
     0
  0
HATCH
  5
3F7
330
1F
100
AcDbEntity
  8
Livello 1
 62
   251
420
  5723990
100
AcDbHatch
 10
0.0
 20
0.0
 30
0.0
210
0.0
220
0.0
230
1.0
  2
SOLID
 70
     1
 71
     0
 91
        1
 92
        1
 93
        3
 72
     1
 10
18.15323894894612
 20
6.542087622172597
 11
18.55858000185382
 21
7.211659424356414
 72
     1
 10
18.55858000185382
 20
7.211659424356414
 11
18.69016650050527
 21
6.674379288806191
 72
     1
 10
18.69016650050527
 20
6.674379288806191
 11
18.15323894894612
 21
6.542087622172597
 97
        0
 75
     2
 76
     1
 98
        0
  0
POLYLINE
  5
3F9
330
1F
100
AcDbEntity
  8
Livello 1
370
     0
100
AcDb2dPolyline
 66
     1
 10
0.0
 20
0.0
 30
0.0
  0
VERTEX
  5
3FA
330
3F9
100
AcDbEntity
  8
Livello 1
370
     0
100
AcDbVertex
100
AcDb2dVertex
 10
18.14085679130558
 20
4.711699979981709
 30
0.0
  0
VERTEX
  5
3FB
330
3F9
100
AcDbEntity
  8
Livello 1
370
     0
100
AcDbVertex
100
AcDb2dVertex
 10
18.53243899411906
 20
4.033660779050551
 30
0.0
  0
VERTEX
  5
3FC
330
3F9
100
AcDbEntity
  8
Livello 1
370
     0
100
AcDbVertex
100
AcDb2dVertex
 10
18.6756674931779
 20
4.568472153793083
 30
0.0
  0
VERTEX
  5
3FD
330
3F9
100
AcDbEntity
  8
Livello 1
370
     0
100
AcDbVertex
100
AcDb2dVertex
 10
18.14085679130558
 20
4.711699979981709
 30
0.0
  0
SEQEND
  5
3FF
330
3F9
100
AcDbEntity
  8
Livello 1
370
     0
  0
HATCH
  5
3FE
330
1F
100
AcDbEntity
  8
Livello 1
 62
   251
420
  5723990
100
AcDbHatch
 10
0.0
 20
0.0
 30
0.0
210
0.0
220
0.0
230
1.0
  2
SOLID
 70
     1
 71
     0
 91
        1
 92
        1
 93
        3
 72
     1
 10
18.14085679130558
 20
4.711699979981709
 11
18.53243899411906
 21
4.033660779050551
 72
     1
 10
18.53243899411906
 20
4.033660779050551
 11
18.6756674931779
 21
4.568472153793083
 72
     1
 10
18.6756674931779
 20
4.568472153793083
 11
18.14085679130558
 21
4.711699979981709
 97
        0
 75
     2
 76
     1
 98
        0
  0
POLYLINE
  5
400
330
1F
100
AcDbEntity
  8
Livello 1
 62
     7
420
 16777215
370
     9
100
AcDb2dPolyline
 66
     1
 10
0.0
 20
0.0
 30
0.0
  0
VERTEX
  5
401
330
400
100
AcDbEntity
  8
Livello 1
 62
     7
420
 16777215
370
     9
100
AcDbVertex
100
AcDb2dVertex
 10
40.71478709156691
 20
22.05347730297187
 30
0.0
  0
VERTEX
  5
402
330
400
100
AcDbEntity
  8
Livello 1
 62
     7
420
 16777215
370
     9
100
AcDbVertex
100
AcDb2dVertex
 10
40.71478709156691
 20
22.05347730297187
 30
0.0
  0
VERTEX
  5
403
330
400
100
AcDbEntity
  8
Livello 1
 62
     7
420
 16777215
370
     9
100
AcDbVertex
100
AcDb2dVertex
 10
40.71478709156691
 20
22.07429187010873
 30
0.0
  0
VERTEX
  5
404
330
400
100
AcDbEntity
  8
Livello 1
 62
     7
420
 16777215
370
     9
100
AcDbVertex
100
AcDb2dVertex
 10
40.73560031296334
 20
22.07429187010873
 30
0.0
  0
VERTEX
  5
405
330
400
100
AcDbEntity
  8
Livello 1
 62
     7
420
 16777215
370
     9
100
AcDbVertex
100
AcDb2dVertex
 10
40.75641622584063
 20
22.07429187010873
 30
0.0
  0
VERTEX
  5
406
330
400
100
AcDbEntity
  8
Livello 1
 62
     7
420
 16777215
370
     9
100
AcDbVertex
100
AcDb2dVertex
 10
40.77758203122814
 20
22.07429187010873
 30
0.0
  0
VERTEX
  5
407
330
400
100
AcDbEntity
  8
Livello 1
 62
     7
420
 16777215
370
     9
100
AcDbVertex
100
AcDb2dVertex
 10
40.79839525262457
 20
22.07429187010873
 30
0.0
  0
VERTEX
  5
408
330
400
100
AcDbEntity
  8
Livello 1
 62
     7
420
 16777215
370
     9
100
AcDbVertex
100
AcDb2dVertex
 10
40.81991633348399
 20
22.07429187010873
 30
0.0
  0
VERTEX
  5
409
330
400
100
AcDbEntity
  8
Livello 1
 62
     7
420
 16777215
370
     9
100
AcDbVertex
100
AcDb2dVertex
 10
40.84037697088935
 20
22.07429187010873
 30
0.0
  0
VERTEX
  5
40A
330
400
100
AcDbEntity
  8
Livello 1
 62
     7
420
 16777215
370
     9
100
AcDbVertex
100
AcDb2dVertex
 10
40.86119019228579
 20
22.05347730297187
 30
0.0
  0
SEQEND
  5
40B
330
400
100
AcDbEntity
  8
Livello 1
 62
     7
420
 16777215
370
     9
  0
SPLINE
  5
40C
330
1F
100
AcDbEntity
  8
Livello 1
 62
     7
420
 16777215
370
     9
100
AcDbSpline
210
0.0
220
0.0
230
1.0
 70
     8
 71
     3
 72
    35
 73
    31
 74
     0
 42
0.0000000001
 43
0.0000000001
 12
1.0
 22
0.0
 32
0.0
 13
1.0
 23
0.0
 33
0.0
 40
0.0
 40
0.0
 40
0.0
 40
0.0
 40
1.0
 40
1.0
 40
1.0
 40
2.0
 40
2.0
 40
2.0
 40
3.0
 40
3.0
 40
3.0
 40
4.0
 40
4.0
 40
4.0
 40
5.0
 40
5.0
 40
5.0
 40
6.0
 40
6.0
 40
6.0
 40
7.0
 40
7.0
 40
7.0
 40
8.0
 40
8.0
 40
8.0
 40
9.0
 40
9.0
 40
9.0
 40
10.0
 40
10.0
 40
10.0
 40
10.0
 10
40.79839525262457
 20
22.03231149758437
 30
0.0
 10
40.79839525262457
 20
22.03231149758437
 30
0.0
 10
40.81991633348399
 20
22.03231149758437
 30
0.0
 10
40.81991633348399
 20
22.03231149758437
 30
0.0
 10
40.81991633348399
 20
22.03231149758437
 30
0.0
 10
40.84037697088935
 20
22.05347730297187
 30
0.0
 10
40.84037697088935
 20
22.05347730297187
 30
0.0
 10
40.84037697088935
 20
22.05347730297187
 30
0.0
 10
40.86119019228579
 20
22.05347730297187
 30
0.0
 10
40.86119019228579
 20
22.05347730297187
 30
0.0
 10
40.86119019228579
 20
22.05347730297187
 30
0.0
 10
40.84037697088935
 20
22.05347730297187
 30
0.0
 10
40.84037697088935
 20
22.05347730297187
 30
0.0
 10
40.84037697088935
 20
22.05347730297187
 30
0.0
 10
40.81991633348399
 20
22.05347730297187
 30
0.0
 10
40.81991633348399
 20
22.05347730297187
 30
0.0
 10
40.81991633348399
 20
22.05347730297187
 30
0.0
 10
40.79839525262457
 20
22.05347730297187
 30
0.0
 10
40.79839525262457
 20
22.05347730297187
 30
0.0
 10
40.79839525262457
 20
22.05347730297187
 30
0.0
 10
40.75641622584063
 20
22.05347730297187
 30
0.0
 10
40.75641622584063
 20
22.05347730297187
 30
0.0
 10
40.75641622584063
 20
22.05347730297187
 30
0.0
 10
40.73560031296334
 20
22.05347730297187
 30
0.0
 10
40.73560031296334
 20
22.05347730297187
 30
0.0
 10
40.73560031296334
 20
22.05347730297187
 30
0.0
 10
40.75641622584063
 20
22.05347730297187
 30
0.0
 10
40.75641622584063
 20
22.05347730297187
 30
0.0
 10
40.75641622584063
 20
22.05347730297187
 30
0.0
 10
40.77758203122814
 20
22.03231149758437
 30
0.0
 10
40.77758203122814
 20
22.03231149758437
 30
0.0
  0
POLYLINE
  5
40D
330
1F
100
AcDbEntity
  8
Livello 1
 62
     7
420
 16777215
370
     9
100
AcDb2dPolyline
 66
     1
 10
0.0
 20
0.0
 30
0.0
  0
VERTEX
  5
40E
330
40D
100
AcDbEntity
  8
Livello 1
 62
     7
420
 16777215
370
     9
100
AcDbVertex
100
AcDb2dVertex
 10
40.67280806478297
 20
22.84934280671985
 30
0.0
  0
VERTEX
  5
40F
330
40D
100
AcDbEntity
  8
Livello 1
 62
     7
420
 16777215
370
     9
100
AcDbVertex
100
AcDb2dVertex
 10
40.65163956791462
 20
22.3466360884007
 30
0.0
  0
SEQEND
  5
410
330
40D
100
AcDbEntity
  8
Livello 1
 62
     7
420
 16777215
370
     9
  0
POLYLINE
  5
411
330
1F
100
AcDbEntity
  8
Livello 1
 62
     7
420
 16777215
370
     9
100
AcDb2dPolyline
 66
     1
 10
0.0
 20
0.0
 30
0.0
  0
VERTEX
  5
412
330
411
100
AcDbEntity
  8
Livello 1
 62
     7
420
 16777215
370
     9
100
AcDbVertex
100
AcDb2dVertex
 10
40.94479835334344
 20
22.87015871959713
 30
0.0
  0
VERTEX
  5
413
330
411
100
AcDbEntity
  8
Livello 1
 62
     7
420
 16777215
370
     9
100
AcDbVertex
100
AcDb2dVertex
 10
40.94479835334344
 20
22.87015871959713
 30
0.0
  0
VERTEX
  5
414
330
411
100
AcDbEntity
  8
Livello 1
 62
     7
420
 16777215
370
     9
100
AcDbVertex
100
AcDb2dVertex
 10
40.93703612257824
 20
22.88568048964669
 30
0.0
  0
VERTEX
  5
415
330
411
100
AcDbEntity
  8
Livello 1
 62
     7
420
 16777215
370
     9
100
AcDbVertex
100
AcDb2dVertex
 10
40.91728065315501
 20
22.88850116157524
 30
0.0
  0
VERTEX
  5
416
330
411
100
AcDbEntity
  8
Livello 1
 62
     7
420
 16777215
370
     9
100
AcDbVertex
100
AcDb2dVertex
 10
40.88200341368223
 20
22.8916771089757
 30
0.0
  0
VERTEX
  5
417
330
411
100
AcDbEntity
  8
Livello 1
 62
     7
420
 16777215
370
     9
100
AcDbVertex
100
AcDb2dVertex
 10
40.84037697088935
 20
22.8916771089757
 30
0.0
  0
VERTEX
  5
418
330
411
100
AcDbEntity
  8
Livello 1
 62
     7
420
 16777215
370
     9
100
AcDbVertex
100
AcDb2dVertex
 10
40.81991633348399
 20
22.8916771089757
 30
0.0
  0
VERTEX
  5
419
330
411
100
AcDbEntity
  8
Livello 1
 62
     7
420
 16777215
370
     9
100
AcDbVertex
100
AcDb2dVertex
 10
40.77758203122814
 20
22.8916771089757
 30
0.0
  0
VERTEX
  5
41A
330
411
100
AcDbEntity
  8
Livello 1
 62
     7
420
 16777215
370
     9
100
AcDbVertex
100
AcDb2dVertex
 10
40.73560031296334
 20
22.8916771089757
 30
0.0
  0
VERTEX
  5
41B
330
411
100
AcDbEntity
  8
Livello 1
 62
     7
420
 16777215
370
     9
100
AcDbVertex
100
AcDb2dVertex
 10
40.71478709156691
 20
22.8916771089757
 30
0.0
  0
VERTEX
  5
41C
330
411
100
AcDbEntity
  8
Livello 1
 62
     7
420
 16777215
370
     9
100
AcDbVertex
100
AcDb2dVertex
 10
40.69397387017047
 20
22.8916771089757
 30
0.0
  0
VERTEX
  5
41D
330
411
100
AcDbEntity
  8
Livello 1
 62
     7
420
 16777215
370
     9
100
AcDbVertex
100
AcDb2dVertex
 10
40.67280806478297
 20
22.87015871959713
 30
0.0
  0
SEQEND
  5
41E
330
411
100
AcDbEntity
  8
Livello 1
 62
     7
420
 16777215
370
     9
  0
SPLINE
  5
41F
330
1F
100
AcDbEntity
  8
Livello 1
 62
     7
420
 16777215
370
     9
100
AcDbSpline
210
0.0
220
0.0
230
1.0
 70
    24
 71
     3
 72
    20
 73
    16
 74
     0
 42
0.0000000001
 43
0.0000000001
 12
1.0
 22
0.0
 32
0.0
 13
1.0
 23
0.0
 33
0.0
 40
0.0
 40
0.0
 40
0.0
 40
0.0
 40
1.0
 40
1.0
 40
1.0
 40
2.0
 40
2.0
 40
2.0
 40
3.0
 40
3.0
 40
3.0
 40
4.0
 40
4.0
 40
4.0
 40
5.0
 40
5.0
 40
5.0
 40
5.0
 10
40.79839525262457
 20
22.05347730297187
 30
0.0
 10
40.79839525262457
 20
22.05347730297187
 30
0.0
 10
40.81991633348399
 20
22.05347730297187
 30
0.0
 10
40.81991633348399
 20
22.05347730297187
 30
0.0
 10
40.81991633348399
 20
22.05347730297187
 30
0.0
 10
40.79839525262457
 20
22.05347730297187
 30
0.0
 10
40.79839525262457
 20
22.05347730297187
 30
0.0
 10
40.79839525262457
 20
22.05347730297187
 30
0.0
 10
40.77758203122814
 20
22.05347730297187
 30
0.0
 10
40.77758203122814
 20
22.05347730297187
 30
0.0
 10
40.77758203122814
 20
22.05347730297187
 30
0.0
 10
40.75641622584063
 20
22.05347730297187
 30
0.0
 10
40.75641622584063
 20
22.05347730297187
 30
0.0
 10
40.75641622584063
 20
22.05347730297187
 30
0.0
 10
40.77758203122814
 20
22.05347730297187
 30
0.0
 10
40.77758203122814
 20
22.05347730297187
 30
0.0
  0
POLYLINE
  5
420
330
1F
100
AcDbEntity
  8
Livello 1
 62
     7
420
 16777215
370
     9
100
AcDb2dPolyline
 66
     1
 10
0.0
 20
0.0
 30
0.0
  0
VERTEX
  5
421
330
420
100
AcDbEntity
  8
Livello 1
 62
     7
420
 16777215
370
     9
100
AcDbVertex
100
AcDb2dVertex
 10
40.86119019228579
 20
22.26302792734304
 30
0.0
  0
VERTEX
  5
422
330
420
100
AcDbEntity
  8
Livello 1
 62
     7
420
 16777215
370
     9
100
AcDbVertex
100
AcDb2dVertex
 10
40.86119019228579
 20
22.26302792734304
 30
0.0
  0
VERTEX
  5
423
330
420
100
AcDbEntity
  8
Livello 1
 62
     7
420
 16777215
370
     9
100
AcDbVertex
100
AcDb2dVertex
 10
40.90317191055058
 20
22.26302792734304
 30
0.0
  0
VERTEX
  5
424
330
420
100
AcDbEntity
  8
Livello 1
 62
     7
420
 16777215
370
     9
100
AcDbVertex
100
AcDb2dVertex
 10
40.92398513194701
 20
22.28384114873948
 30
0.0
  0
VERTEX
  5
425
330
420
100
AcDbEntity
  8
Livello 1
 62
     7
420
 16777215
370
     9
100
AcDbVertex
100
AcDb2dVertex
 10
40.90317191055058
 20
22.30500829986741
 30
0.0
  0
VERTEX
  5
426
330
420
100
AcDbEntity
  8
Livello 1
 62
     7
420
 16777215
370
     9
100
AcDbVertex
100
AcDb2dVertex
 10
40.86119019228579
 20
22.30500829986741
 30
0.0
  0
VERTEX
  5
427
330
420
100
AcDbEntity
  8
Livello 1
 62
     7
420
 16777215
370
     9
100
AcDbVertex
100
AcDb2dVertex
 10
40.84037697088935
 20
22.30500829986741
 30
0.0
  0
VERTEX
  5
428
330
420
100
AcDbEntity
  8
Livello 1
 62
     7
420
 16777215
370
     9
100
AcDbVertex
100
AcDb2dVertex
 10
40.79839525262457
 20
22.30500829986741
 30
0.0
  0
VERTEX
  5
429
330
420
100
AcDbEntity
  8
Livello 1
 62
     7
420
 16777215
370
     9
100
AcDbVertex
100
AcDb2dVertex
 10
40.75641622584063
 20
22.30500829986741
 30
0.0
  0
VERTEX
  5
42A
330
420
100
AcDbEntity
  8
Livello 1
 62
     7
420
 16777215
370
     9
100
AcDbVertex
100
AcDb2dVertex
 10
40.73560031296334
 20
22.30500829986741
 30
0.0
  0
VERTEX
  5
42B
330
420
100
AcDbEntity
  8
Livello 1
 62
     7
420
 16777215
370
     9
100
AcDbVertex
100
AcDb2dVertex
 10
40.69397387017047
 20
22.30500829986741
 30
0.0
  0
VERTEX
  5
42C
330
420
100
AcDbEntity
  8
Livello 1
 62
     7
420
 16777215
370
     9
100
AcDbVertex
100
AcDb2dVertex
 10
40.67280806478297
 20
22.30500829986741
 30
0.0
  0
VERTEX
  5
42D
330
420
100
AcDbEntity
  8
Livello 1
 62
     7
420
 16777215
370
     9
100
AcDbVertex
100
AcDb2dVertex
 10
40.65163956791462
 20
22.30500829986741
 30
0.0
  0
VERTEX
  5
42E
330
420
100
AcDbEntity
  8
Livello 1
 62
     7
420
 16777215
370
     9
100
AcDbVertex
100
AcDb2dVertex
 10
40.65163956791462
 20
22.28384114873948
 30
0.0
  0
VERTEX
  5
42F
330
420
100
AcDbEntity
  8
Livello 1
 62
     7
420
 16777215
370
     9
100
AcDbVertex
100
AcDb2dVertex
 10
40.65516809930615
 20
22.27043622837676
 30
0.0
  0
VERTEX
  5
430
330
420
100
AcDbEntity
  8
Livello 1
 62
     7
420
 16777215
370
     9
100
AcDbVertex
100
AcDb2dVertex
 10
40.67280806478297
 20
22.26302792734304
 30
0.0
  0
VERTEX
  5
431
330
420
100
AcDbEntity
  8
Livello 1
 62
     7
420
 16777215
370
     9
100
AcDbVertex
100
AcDb2dVertex
 10
40.71478709156691
 20
22.26302792734304
 30
0.0
  0
SEQEND
  5
432
330
420
100
AcDbEntity
  8
Livello 1
 62
     7
420
 16777215
370
     9
  0
POLYLINE
  5
433
330
1F
100
AcDbEntity
  8
Livello 1
 62
     7
420
 16777215
370
     9
100
AcDb2dPolyline
 66
     1
 10
0.0
 20
0.0
 30
0.0
  0
VERTEX
  5
434
330
433
100
AcDbEntity
  8
Livello 1
 62
     7
420
 16777215
370
     9
100
AcDbVertex
100
AcDb2dVertex
 10
40.65163956791462
 20
22.3466360884007
 30
0.0
  0
VERTEX
  5
435
330
433
100
AcDbEntity
  8
Livello 1
 62
     7
420
 16777215
370
     9
100
AcDbVertex
100
AcDb2dVertex
 10
40.65163956791462
 20
22.32546893727277
 30
0.0
  0
SEQEND
  5
436
330
433
100
AcDbEntity
  8
Livello 1
 62
     7
420
 16777215
370
     9
  0
POLYLINE
  5
437
330
1F
100
AcDbEntity
  8
Livello 1
 62
     7
420
 16777215
370
     9
100
AcDb2dPolyline
 66
     1
 10
0.0
 20
0.0
 30
0.0
  0
VERTEX
  5
438
330
437
100
AcDbEntity
  8
Livello 1
 62
     7
420
 16777215
370
     9
100
AcDbVertex
100
AcDb2dVertex
 10
40.67280806478297
 20
22.87015871959713
 30
0.0
  0
VERTEX
  5
439
330
437
100
AcDbEntity
  8
Livello 1
 62
     7
420
 16777215
370
     9
100
AcDbVertex
100
AcDb2dVertex
 10
40.67280806478297
 20
22.87015871959713
 30
0.0
  0
VERTEX
  5
43A
330
437
100
AcDbEntity
  8
Livello 1
 62
     7
420
 16777215
370
     9
100
AcDbVertex
100
AcDb2dVertex
 10
40.67280806478297
 20
22.84934280671985
 30
0.0
  0
SEQEND
  5
43B
330
437
100
AcDbEntity
  8
Livello 1
 62
     7
420
 16777215
370
     9
  0
POLYLINE
  5
43C
330
1F
100
AcDbEntity
  8
Livello 1
 62
     7
420
 16777215
370
     9
100
AcDb2dPolyline
 66
     1
 10
0.0
 20
0.0
 30
0.0
  0
VERTEX
  5
43D
330
43C
100
AcDbEntity
  8
Livello 1
 62
     7
420
 16777215
370
     9
100
AcDbVertex
100
AcDb2dVertex
 10
40.67280806478297
 20
22.87015871959713
 30
0.0
  0
VERTEX
  5
43E
330
43C
100
AcDbEntity
  8
Livello 1
 62
     7
420
 16777215
370
     9
100
AcDbVertex
100
AcDb2dVertex
 10
40.67280806478297
 20
22.3466360884007
 30
0.0
  0
SEQEND
  5
43F
330
43C
100
AcDbEntity
  8
Livello 1
 62
     7
420
 16777215
370
     9
  0
POLYLINE
  5
440
330
1F
100
AcDbEntity
  8
Livello 1
 62
     7
420
 16777215
370
     9
100
AcDb2dPolyline
 66
     1
 10
0.0
 20
0.0
 30
0.0
  0
VERTEX
  5
441
330
440
100
AcDbEntity
  8
Livello 1
 62
     7
420
 16777215
370
     9
100
AcDbVertex
100
AcDb2dVertex
 10
40.67280806478297
 20
22.3466360884007
 30
0.0
  0
VERTEX
  5
442
330
440
100
AcDbEntity
  8
Livello 1
 62
     7
420
 16777215
370
     9
100
AcDbVertex
100
AcDb2dVertex
 10
40.67280806478297
 20
22.3466360884007
 30
0.0
  0
VERTEX
  5
443
330
440
100
AcDbEntity
  8
Livello 1
 62
     7
420
 16777215
370
     9
100
AcDbVertex
100
AcDb2dVertex
 10
40.69467903815261
 20
22.36215785845026
 30
0.0
  0
VERTEX
  5
444
330
440
100
AcDbEntity
  8
Livello 1
 62
     7
420
 16777215
370
     9
100
AcDbVertex
100
AcDb2dVertex
 10
40.73560031296334
 20
22.3681558235197
 30
0.0
  0
VERTEX
  5
445
330
440
100
AcDbEntity
  8
Livello 1
 62
     7
420
 16777215
370
     9
100
AcDbVertex
100
AcDb2dVertex
 10
40.75641622584063
 20
22.3681558235197
 30
0.0
  0
VERTEX
  5
446
330
440
100
AcDbEntity
  8
Livello 1
 62
     7
420
 16777215
370
     9
100
AcDbVertex
100
AcDb2dVertex
 10
40.79839525262457
 20
22.3681558235197
 30
0.0
  0
VERTEX
  5
447
330
440
100
AcDbEntity
  8
Livello 1
 62
     7
420
 16777215
370
     9
100
AcDbVertex
100
AcDb2dVertex
 10
40.84037697088935
 20
22.3681558235197
 30
0.0
  0
VERTEX
  5
448
330
440
100
AcDbEntity
  8
Livello 1
 62
     7
420
 16777215
370
     9
100
AcDbVertex
100
AcDb2dVertex
 10
40.87459645838894
 20
22.36497987611923
 30
0.0
  0
VERTEX
  5
449
330
440
100
AcDbEntity
  8
Livello 1
 62
     7
420
 16777215
370
     9
100
AcDbVertex
100
AcDb2dVertex
 10
40.90317191055058
 20
22.3466360884007
 30
0.0
  0
VERTEX
  5
44A
330
440
100
AcDbEntity
  8
Livello 1
 62
     7
420
 16777215
370
     9
100
AcDbVertex
100
AcDb2dVertex
 10
40.92398513194701
 20
22.3466360884007
 30
0.0
  0
VERTEX
  5
44B
330
440
100
AcDbEntity
  8
Livello 1
 62
     7
420
 16777215
370
     9
100
AcDbVertex
100
AcDb2dVertex
 10
40.94479835334344
 20
22.32546893727277
 30
0.0
  0
SEQEND
  5
44C
330
440
100
AcDbEntity
  8
Livello 1
 62
     7
420
 16777215
370
     9
  0
POLYLINE
  5
44D
330
1F
100
AcDbEntity
  8
Livello 1
 62
     7
420
 16777215
370
     9
100
AcDb2dPolyline
 66
     1
 10
0.0
 20
0.0
 30
0.0
  0
VERTEX
  5
44E
330
44D
100
AcDbEntity
  8
Livello 1
 62
     7
420
 16777215
370
     9
100
AcDbVertex
100
AcDb2dVertex
 10
40.71478709156691
 20
22.28384114873948
 30
0.0
  0
VERTEX
  5
44F
330
44D
100
AcDbEntity
  8
Livello 1
 62
     7
420
 16777215
370
     9
100
AcDbVertex
100
AcDb2dVertex
 10
40.71478709156691
 20
22.05347730297187
 30
0.0
  0
SEQEND
  5
450
330
44D
100
AcDbEntity
  8
Livello 1
 62
     7
420
 16777215
370
     9
  0
POLYLINE
  5
451
330
1F
100
AcDbEntity
  8
Livello 1
 62
     7
420
 16777215
370
     9
100
AcDb2dPolyline
 66
     1
 10
0.0
 20
0.0
 30
0.0
  0
VERTEX
  5
452
330
451
100
AcDbEntity
  8
Livello 1
 62
     7
420
 16777215
370
     9
100
AcDbVertex
100
AcDb2dVertex
 10
40.86119019228579
 20
22.05347730297187
 30
0.0
  0
VERTEX
  5
453
330
451
100
AcDbEntity
  8
Livello 1
 62
     7
420
 16777215
370
     9
100
AcDbVertex
100
AcDb2dVertex
 10
40.86119019228579
 20
22.28384114873948
 30
0.0
  0
SEQEND
  5
454
330
451
100
AcDbEntity
  8
Livello 1
 62
     7
420
 16777215
370
     9
  0
POLYLINE
  5
455
330
1F
100
AcDbEntity
  8
Livello 1
 62
     7
420
 16777215
370
     9
100
AcDb2dPolyline
 66
     1
 10
0.0
 20
0.0
 30
0.0
  0
VERTEX
  5
456
330
455
100
AcDbEntity
  8
Livello 1
 62
     7
420
 16777215
370
     9
100
AcDbVertex
100
AcDb2dVertex
 10
40.79839525262457
 20
22.03231149758437
 30
0.0
  0
VERTEX
  5
457
330
455
100
AcDbEntity
  8
Livello 1
 62
     7
420
 16777215
370
     9
100
AcDbVertex
100
AcDb2dVertex
 10
40.81991633348399
 20
22.03231149758437
 30
0.0
  0
VERTEX
  5
458
330
455
100
AcDbEntity
  8
Livello 1
 62
     7
420
 16777215
370
     9
100
AcDbVertex
100
AcDb2dVertex
 10
40.84037697088935
 20
22.03231149758437
 30
0.0
  0
VERTEX
  5
459
330
455
100
AcDbEntity
  8
Livello 1
 62
     7
420
 16777215
370
     9
100
AcDbVertex
100
AcDb2dVertex
 10
40.85519357295678
 20
22.03478093126228
 30
0.0
  0
VERTEX
  5
45A
330
455
100
AcDbEntity
  8
Livello 1
 62
     7
420
 16777215
370
     9
100
AcDbVertex
100
AcDb2dVertex
 10
40.86119019228579
 20
22.05347730297187
 30
0.0
  0
SEQEND
  5
45B
330
455
100
AcDbEntity
  8
Livello 1
 62
     7
420
 16777215
370
     9
  0
POLYLINE
  5
45C
330
1F
100
AcDbEntity
  8
Livello 1
 62
     7
420
 16777215
370
     9
100
AcDb2dPolyline
 66
     1
 10
0.0
 20
0.0
 30
0.0
  0
VERTEX
  5
45D
330
45C
100
AcDbEntity
  8
Livello 1
 62
     7
420
 16777215
370
     9
100
AcDbVertex
100
AcDb2dVertex
 10
40.71478709156691
 20
22.05347730297187
 30
0.0
  0
VERTEX
  5
45E
330
45C
100
AcDbEntity
  8
Livello 1
 62
     7
420
 16777215
370
     9
100
AcDbVertex
100
AcDb2dVertex
 10
40.71478709156691
 20
22.05347730297187
 30
0.0
  0
VERTEX
  5
45F
330
45C
100
AcDbEntity
  8
Livello 1
 62
     7
420
 16777215
370
     9
100
AcDbVertex
100
AcDb2dVertex
 10
40.74053918031915
 20
22.03795553292231
 30
0.0
  0
VERTEX
  5
460
330
45C
100
AcDbEntity
  8
Livello 1
 62
     7
420
 16777215
370
     9
100
AcDbVertex
100
AcDb2dVertex
 10
40.77758203122814
 20
22.03231149758437
 30
0.0
  0
SEQEND
  5
461
330
45C
100
AcDbEntity
  8
Livello 1
 62
     7
420
 16777215
370
     9
  0
POLYLINE
  5
462
330
1F
100
AcDbEntity
  8
Livello 1
 62
     7
420
 16777215
370
     9
100
AcDb2dPolyline
 66
     1
 10
0.0
 20
0.0
 30
0.0
  0
VERTEX
  5
463
330
462
100
AcDbEntity
  8
Livello 1
 62
     7
420
 16777215
370
     9
100
AcDbVertex
100
AcDb2dVertex
 10
40.65163956791462
 20
22.32546893727277
 30
0.0
  0
VERTEX
  5
464
330
462
100
AcDbEntity
  8
Livello 1
 62
     7
420
 16777215
370
     9
100
AcDbVertex
100
AcDb2dVertex
 10
40.65163956791462
 20
22.28384114873948
 30
0.0
  0
SEQEND
  5
465
330
462
100
AcDbEntity
  8
Livello 1
 62
     7
420
 16777215
370
     9
  0
POLYLINE
  5
466
330
1F
100
AcDbEntity
  8
Livello 1
 62
     7
420
 16777215
370
     9
100
AcDb2dPolyline
 66
     1
 10
0.0
 20
0.0
 30
0.0
  0
VERTEX
  5
467
330
466
100
AcDbEntity
  8
Livello 1
 62
     7
420
 16777215
370
     9
100
AcDbVertex
100
AcDb2dVertex
 10
40.92398513194701
 20
22.28384114873948
 30
0.0
  0
VERTEX
  5
468
330
466
100
AcDbEntity
  8
Livello 1
 62
     7
420
 16777215
370
     9
100
AcDbVertex
100
AcDb2dVertex
 10
40.94479835334344
 20
22.32546893727277
 30
0.0
  0
SEQEND
  5
469
330
466
100
AcDbEntity
  8
Livello 1
 62
     7
420
 16777215
370
     9
  0
POLYLINE
  5
46A
330
1F
100
AcDbEntity
  8
Livello 1
 62
     7
420
 16777215
370
     9
100
AcDb2dPolyline
 66
     1
 10
0.0
 20
0.0
 30
0.0
  0
VERTEX
  5
46B
330
46A
100
AcDbEntity
  8
Livello 1
 62
     7
420
 16777215
370
     9
100
AcDbVertex
100
AcDb2dVertex
 10
40.67280806478297
 20
22.84934280671985
 30
0.0
  0
VERTEX
  5
46C
330
46A
100
AcDbEntity
  8
Livello 1
 62
     7
420
 16777215
370
     9
100
AcDbVertex
100
AcDb2dVertex
 10
40.65163956791462
 20
22.3466360884007
 30
0.0
  0
SEQEND
  5
46D
330
46A
100
AcDbEntity
  8
Livello 1
 62
     7
420
 16777215
370
     9
  0
POLYLINE
  5
46E
330
1F
100
AcDbEntity
  8
Livello 1
 62
     7
420
 16777215
370
     9
100
AcDb2dPolyline
 66
     1
 10
0.0
 20
0.0
 30
0.0
  0
VERTEX
  5
46F
330
46E
100
AcDbEntity
  8
Livello 1
 62
     7
420
 16777215
370
     9
100
AcDbVertex
100
AcDb2dVertex
 10
40.65163956791462
 20
22.3466360884007
 30
0.0
  0
VERTEX
  5
470
330
46E
100
AcDbEntity
  8
Livello 1
 62
     7
420
 16777215
370
     9
100
AcDbVertex
100
AcDb2dVertex
 10
40.65163956791462
 20
22.3466360884007
 30
0.0
  0
VERTEX
  5
471
330
46E
100
AcDbEntity
  8
Livello 1
 62
     7
420
 16777215
370
     9
100
AcDbVertex
100
AcDb2dVertex
 10
40.65163956791462
 20
22.32546893727277
 30
0.0
  0
SEQEND
  5
472
330
46E
100
AcDbEntity
  8
Livello 1
 62
     7
420
 16777215
370
     9
  0
POLYLINE
  5
473
330
1F
100
AcDbEntity
  8
Livello 1
 62
     7
420
 16777215
370
     9
100
AcDb2dPolyline
 66
     1
 10
0.0
 20
0.0
 30
0.0
  0
VERTEX
  5
474
330
473
100
AcDbEntity
  8
Livello 1
 62
     7
420
 16777215
370
     9
100
AcDbVertex
100
AcDb2dVertex
 10
40.67280806478297
 20
22.87015871959713
 30
0.0
  0
VERTEX
  5
475
330
473
100
AcDbEntity
  8
Livello 1
 62
     7
420
 16777215
370
     9
100
AcDbVertex
100
AcDb2dVertex
 10
40.67280806478297
 20
22.3466360884007
 30
0.0
  0
SEQEND
  5
476
330
473
100
AcDbEntity
  8
Livello 1
 62
     7
420
 16777215
370
     9
  0
POLYLINE
  5
477
330
1F
100
AcDbEntity
  8
Livello 1
 62
     7
420
 16777215
370
     9
100
AcDb2dPolyline
 66
     1
 10
0.0
 20
0.0
 30
0.0
  0
VERTEX
  5
478
330
477
100
AcDbEntity
  8
Livello 1
 62
     7
420
 16777215
370
     9
100
AcDbVertex
100
AcDb2dVertex
 10
40.94479835334344
 20
22.32546893727277
 30
0.0
  0
VERTEX
  5
479
330
477
100
AcDbEntity
  8
Livello 1
 62
     7
420
 16777215
370
     9
100
AcDbVertex
100
AcDb2dVertex
 10
40.94479835334344
 20
22.87015871959713
 30
0.0
  0
SEQEND
  5
47A
330
477
100
AcDbEntity
  8
Livello 1
 62
     7
420
 16777215
370
     9
  0
POLYLINE
  5
47B
330
1F
100
AcDbEntity
  8
Livello 1
 62
     7
420
 16777215
370
     9
100
AcDb2dPolyline
 66
     1
 10
0.0
 20
0.0
 30
0.0
  0
VERTEX
  5
47C
330
47B
100
AcDbEntity
  8
Livello 1
 62
     7
420
 16777215
370
     9
100
AcDbVertex
100
AcDb2dVertex
 10
40.67280806478297
 20
22.87015871959713
 30
0.0
  0
VERTEX
  5
47D
330
47B
100
AcDbEntity
  8
Livello 1
 62
     7
420
 16777215
370
     9
100
AcDbVertex
100
AcDb2dVertex
 10
40.67280806478297
 20
22.84934280671985
 30
0.0
  0
SEQEND
  5
47E
330
47B
100
AcDbEntity
  8
Livello 1
 62
     7
420
 16777215
370
     9
  0
MTEXT
  5
47F
330
1F
100
AcDbEntity
  8
Livello 1
 62
   251
420
  5723990
100
AcDbMText
 10
35.4248833461785
 20
7.365614147464153
 30
0.0
 40
0.7604645466572273
 41
0.0
 46
0.0
 71
     7
 72
     1
  1
\fBrandon Grotesque Medium|b0|i0|c0|p34;\W1;360°
 73
     1
 44
1.0
  0
MTEXT
  5
480
330
1F
100
AcDbEntity
  8
Livello 1
 62
   251
420
  5723990
100
AcDbMText
 10
31.39825574301849
 20
21.7719699381334
 30
0.0
 40
0.7604645466572273
 41
0.0
 46
0.0
 71
     7
 72
     1
  1
\fBrandon Grotesque Medium|b0|i0|c0|p34;\W1;5
 11
-1.608122649676637E-16
 21
1.0
 31
0.0
 73
     1
 44
1.0
  0
MTEXT
  5
481
330
1F
100
AcDbEntity
  8
Livello 1
 62
   251
420
  5723990
100
AcDbMText
 10
34.70313584201866
 20
23.9465142084231
 30
0.0
 40
0.7604645466572273
 41
0.0
 46
0.0
 71
     7
 72
     1
  1
\fBrandon Grotesque Medium|b0|i0|c0|p34;\W1;29
 73
     1
 44
1.0
  0
POLYLINE
  5
482
330
1F
100
AcDbEntity
  8
Livello 1
 62
   251
420
  5723990
370
     9
100
AcDb2dPolyline
 66
     1
 10
0.0
 20
0.0
 30
0.0
  0
VERTEX
  5
483
330
482
100
AcDbEntity
  8
Livello 1
 62
   251
420
  5723990
370
     9
100
AcDbVertex
100
AcDb2dVertex
 10
38.77232383182574
 20
23.57031785587636
 30
0.0
  0
VERTEX
  5
484
330
482
100
AcDbEntity
  8
Livello 1
 62
   251
420
  5723990
370
     9
100
AcDbVertex
100
AcDb2dVertex
 10
38.77232383182574
 20
24.63111927688259
 30
0.0
  0
SEQEND
  5
485
330
482
100
AcDbEntity
  8
Livello 1
 62
   251
420
  5723990
370
     9
  0
POLYLINE
  5
486
330
1F
100
AcDbEntity
  8
Livello 1
 62
   251
420
  5723990
370
     9
100
AcDb2dPolyline
 66
     1
 10
0.0
 20
0.0
 30
0.0
  0
VERTEX
  5
487
330
486
100
AcDbEntity
  8
Livello 1
 62
   251
420
  5723990
370
     9
100
AcDbVertex
100
AcDb2dVertex
 10
32.51034064009968
 20
23.57031785587636
 30
0.0
  0
VERTEX
  5
488
330
486
100
AcDbEntity
  8
Livello 1
 62
   251
420
  5723990
370
     9
100
AcDbVertex
100
AcDb2dVertex
 10
32.51034064009968
 20
24.63111927688259
 30
0.0
  0
SEQEND
  5
489
330
486
100
AcDbEntity
  8
Livello 1
 62
   251
420
  5723990
370
     9
  0
POLYLINE
  5
48A
330
1F
100
AcDbEntity
  8
Livello 1
 62
   251
420
  5723990
370
     9
100
AcDb2dPolyline
 66
     1
 10
0.0
 20
0.0
 30
0.0
  0
VERTEX
  5
48B
330
48A
100
AcDbEntity
  8
Livello 1
 62
   251
420
  5723990
370
     9
100
AcDbVertex
100
AcDb2dVertex
 10
30.63836188080206
 20
21.30093387495092
 30
0.0
  0
VERTEX
  5
48C
330
48A
100
AcDbEntity
  8
Livello 1
 62
   251
420
  5723990
370
     9
100
AcDbVertex
100
AcDb2dVertex
 10
31.69916330180828
 20
21.30093387495092
 30
0.0
  0
SEQEND
  5
48D
330
48A
100
AcDbEntity
  8
Livello 1
 62
   251
420
  5723990
370
     9
  0
POLYLINE
  5
48E
330
1F
100
AcDbEntity
  8
Livello 1
 62
   251
420
  5723990
370
     9
100
AcDb2dPolyline
 66
     1
 10
0.0
 20
0.0
 30
0.0
  0
VERTEX
  5
48F
330
48E
100
AcDbEntity
  8
Livello 1
 62
   251
420
  5723990
370
     9
100
AcDbVertex
100
AcDb2dVertex
 10
30.63836188080206
 20
22.66441923210652
 30
0.0
  0
VERTEX
  5
490
330
48E
100
AcDbEntity
  8
Livello 1
 62
   251
420
  5723990
370
     9
100
AcDbVertex
100
AcDb2dVertex
 10
31.69916330180828
 20
22.66441923210652
 30
0.0
  0
SEQEND
  5
491
330
48E
100
AcDbEntity
  8
Livello 1
 62
   251
420
  5723990
370
     9
  0
POLYLINE
  5
492
330
1F
100
AcDbEntity
  8
Livello 1
 62
   251
420
  5723990
370
     9
100
AcDb2dPolyline
 66
     1
 10
0.0
 20
0.0
 30
0.0
  0
VERTEX
  5
493
330
492
100
AcDbEntity
  8
Livello 1
 62
   251
420
  5723990
370
     9
100
AcDbVertex
100
AcDb2dVertex
 10
32.55045177917521
 20
21.34129128452403
 30
0.0
  0
VERTEX
  5
494
330
492
100
AcDbEntity
  8
Livello 1
 62
   251
420
  5723990
370
     9
100
AcDbVertex
100
AcDb2dVertex
 10
38.71594807398665
 20
21.34129128452403
 30
0.0
  0
VERTEX
  5
495
330
492
100
AcDbEntity
  8
Livello 1
 62
   251
420
  5723990
370
     9
100
AcDbVertex
100
AcDb2dVertex
 10
38.71594807398665
 20
22.7114797747312
 30
0.0
  0
VERTEX
  5
496
330
492
100
AcDbEntity
  8
Livello 1
 62
   251
420
  5723990
370
     9
100
AcDbVertex
100
AcDb2dVertex
 10
32.55045177917521
 20
22.7114797747312
 30
0.0
  0
VERTEX
  5
497
330
492
100
AcDbEntity
  8
Livello 1
 62
   251
420
  5723990
370
     9
100
AcDbVertex
100
AcDb2dVertex
 10
32.55045177917521
 20
21.34129128452403
 30
0.0
  0
SEQEND
  5
498
330
492
100
AcDbEntity
  8
Livello 1
 62
   251
420
  5723990
370
     9
  0
INSERT
  5
49A
330
1F
100
AcDbEntity
  8
Livello 1
100
AcDbBlockReference
  2
block 8
 10
0.0
 20
0.0
 30
0.0
  0
POLYLINE
  5
4A6
330
1F
100
AcDbEntity
  8
Livello 1
 62
   251
420
  5723990
370
     9
100
AcDb2dPolyline
 66
     1
 10
0.0
 20
0.0
 30
0.0
  0
VERTEX
  5
4A7
330
4A6
100
AcDbEntity
  8
Livello 1
 62
   251
420
  5723990
370
     9
100
AcDbVertex
100
AcDb2dVertex
 10
2.272382795242604
 20
31.57946776554263
 30
0.0
  0
VERTEX
  5
4A8
330
4A6
100
AcDbEntity
  8
Livello 1
 62
   251
420
  5723990
370
     9
100
AcDbVertex
100
AcDb2dVertex
 10
3.333185393771704
 20
31.57946776554263
 30
0.0
  0
SEQEND
  5
4A9
330
4A6
100
AcDbEntity
  8
Livello 1
 62
   251
420
  5723990
370
     9
  0
POLYLINE
  5
4AA
330
1F
100
AcDbEntity
  8
Livello 1
 62
   251
420
  5723990
370
     9
100
AcDb2dPolyline
 66
     1
 10
0.0
 20
0.0
 30
0.0
  0
VERTEX
  5
4AB
330
4AA
100
AcDbEntity
  8
Livello 1
 62
   251
420
  5723990
370
     9
100
AcDbVertex
100
AcDb2dVertex
 10
2.272382795242604
 20
31.92243778702265
 30
0.0
  0
VERTEX
  5
4AC
330
4AA
100
AcDbEntity
  8
Livello 1
 62
   251
420
  5723990
370
     9
100
AcDbVertex
100
AcDb2dVertex
 10
3.333185393771704
 20
31.92243778702265
 30
0.0
  0
SEQEND
  5
4AD
330
4AA
100
AcDbEntity
  8
Livello 1
 62
   251
420
  5723990
370
     9
  0
ENDSEC
  0
SECTION
  2
OBJECTS
  0
DICTIONARY
  5
C
330
0
100
AcDbDictionary
281
     1
  3
ACAD_GROUP
350
D
  3
ACAD_LAYOUT
350
1A
  3
ACAD_MATERIAL
350
3B
  3
ACAD_MLEADERSTYLE
350
4AF
  3
ACAD_MLINESTYLE
350
17
  3
ACAD_PLOTSETTINGS
350
19
  3
ACAD_PLOTSTYLENAME
350
E
  3
ACAD_TABLESTYLE
350
4AE
  3
ACAD_VISUALSTYLE
350
2A
  0
SUN
  5
3F
330
29
100
AcDbSun
 90
        1
290
     0
 63
     7
421
 16777215
 40
1.0
291
     1
 91
  2455826
 92
 54000000
292
     0
 70
     2
 71
   256
280
     1
  0
DICTIONARY
  5
D
102
{ACAD_REACTORS
330
C
102
}
330
C
100
AcDbDictionary
281
     1
  0
DICTIONARY
  5
1A
102
{ACAD_REACTORS
330
C
102
}
330
C
100
AcDbDictionary
281
     1
  3
Layout1
350
1E
  3
Layout2
350
26
  3
Model
350
22
  0
DICTIONARY
  5
3B
102
{ACAD_REACTORS
330
C
102
}
330
C
100
AcDbDictionary
281
     1
  3
ByBlock
350
3D
  3
ByLayer
350
3C
  3
Global
350
3E
  0
DICTIONARY
  5
4AF
102
{ACAD_REACTORS
330
C
102
}
330
C
100
AcDbDictionary
281
     1
  0
DICTIONARY
  5
17
102
{ACAD_REACTORS
330
C
102
}
330
C
100
AcDbDictionary
281
     1
  3
Standard
350
18
  0
DICTIONARY
  5
19
102
{ACAD_REACTORS
330
C
102
}
330
C
100
AcDbDictionary
281
     1
  0
ACDBDICTIONARYWDFLT
  5
E
102
{ACAD_REACTORS
330
C
102
}
330
C
100
AcDbDictionary
281
     1
  3
Normal
350
F
100
AcDbDictionaryWithDefault
340
F
  0
DICTIONARY
  5
4AE
102
{ACAD_REACTORS
330
C
102
}
330
C
100
AcDbDictionary
281
     1
  0
DICTIONARY
  5
2A
102
{ACAD_REACTORS
330
C
102
}
330
C
100
AcDbDictionary
281
     1
  3
2dWireframe
350
2F
  3
3D Hidden
350
31
  3
3dWireframe
350
30
  3
Basic
350
32
  3
Brighten
350
36
  3
ColorChange
350
3A
  3
Conceptual
350
34
  3
Dim
350
35
  3
Facepattern
350
39
  3
Flat
350
2B
  3
FlatWithEdges
350
2C
  3
Gouraud
350
2D
  3
GouraudWithEdges
350
2E
  3
Linepattern
350
38
  3
Realistic
350
33
  3
Thicken
350
37
  0
LAYOUT
  5
1E
102
{ACAD_REACTORS
330
1A
102
}
330
1A
100
AcDbPlotSettings
  1

  2
none_device
  4

  6

 40
0.0
 41
0.0
 42
0.0
 43
0.0
 44
0.0
 45
0.0
 46
0.0
 47
0.0
 48
0.0
 49
0.0
140
0.0
141
0.0
142
1.0
143
1.0
 70
   688
 72
     0
 73
     0
 74
     5
  7

 75
    16
 76
     0
 77
     2
 78
   300
147
1.0
148
0.0
149
0.0
100
AcDbLayout
  1
Layout1
 70
     1
 71
     1
 10
0.0
 20
0.0
 11
12.0
 21
9.0
 12
0.0
 22
0.0
 32
0.0
 14
1.000000000000000E+20
 24
1.000000000000000E+20
 34
1.000000000000000E+20
 15
-1.000000000000000E+20
 25
-1.000000000000000E+20
 35
-1.000000000000000E+20
146
0.0
 13
0.0
 23
0.0
 33
0.0
 16
1.0
 26
0.0
 36
0.0
 17
0.0
 27
1.0
 37
0.0
 76
     0
330
1B
  0
LAYOUT
  5
26
102
{ACAD_REACTORS
330
1A
102
}
330
1A
100
AcDbPlotSettings
  1

  2
none_device
  4

  6

 40
0.0
 41
0.0
 42
0.0
 43
0.0
 44
0.0
 45
0.0
 46
0.0
 47
0.0
 48
0.0
 49
0.0
140
0.0
141
0.0
142
1.0
143
1.0
 70
   688
 72
     0
 73
     0
 74
     5
  7

 75
    16
 76
     0
 77
     2
 78
   300
147
1.0
148
0.0
149
0.0
100
AcDbLayout
  1
Layout2
 70
     1
 71
     2
 10
0.0
 20
0.0
 11
0.0
 21
0.0
 12
0.0
 22
0.0
 32
0.0
 14
0.0
 24
0.0
 34
0.0
 15
0.0
 25
0.0
 35
0.0
146
0.0
 13
0.0
 23
0.0
 33
0.0
 16
1.0
 26
0.0
 36
0.0
 17
0.0
 27
1.0
 37
0.0
 76
     0
330
23
  0
LAYOUT
  5
22
102
{ACAD_REACTORS
330
1A
102
}
330
1A
100
AcDbPlotSettings
  1

  2
none_device
  4

  6

 40
0.0
 41
0.0
 42
0.0
 43
0.0
 44
0.0
 45
0.0
 46
0.0
 47
0.0
 48
0.0
 49
0.0
140
0.0
141
0.0
142
1.0
143
1.0
 70
  1712
 72
     0
 73
     0
 74
     0
  7

 75
     0
 76
     0
 77
     2
 78
   300
147
1.0
148
0.0
149
0.0
100
AcDbLayout
  1
Model
 70
     1
 71
     0
 10
0.0
 20
0.0
 11
12.0
 21
9.0
 12
0.0
 22
0.0
 32
0.0
 14
1.000000000000000E+20
 24
1.000000000000000E+20
 34
1.000000000000000E+20
 15
-1.000000000000000E+20
 25
-1.000000000000000E+20
 35
-1.000000000000000E+20
146
0.0
 13
0.0
 23
0.0
 33
0.0
 16
1.0
 26
0.0
 36
0.0
 17
0.0
 27
1.0
 37
0.0
 76
     0
330
1F
331
29
  0
MATERIAL
  5
3D
102
{ACAD_REACTORS
330
3B
102
}
330
3B
100
AcDbMaterial
  1
ByBlock
 72
     1
 94
      127
  0
MATERIAL
  5
3C
102
{ACAD_REACTORS
330
3B
102
}
330
3B
100
AcDbMaterial
  1
ByLayer
 72
     1
 94
      127
  0
MATERIAL
  5
3E
102
{ACAD_REACTORS
330
3B
102
}
330
3B
100
AcDbMaterial
  1
Global
 72
     1
 94
      127
  0
MLINESTYLE
  5
18
102
{ACAD_REACTORS
330
17
102
}
330
17
100
AcDbMlineStyle
  2
Standard
 70
     0
  3

 62
   256
 51
90.0
 52
90.0
 71
     2
 49
0.5
 62
   256
  6
BYLAYER
 49
-0.5
 62
   256
  6
BYLAYER
  0
ACDBPLACEHOLDER
  5
F
102
{ACAD_REACTORS
330
E
102
}
330
E
  0
VISUALSTYLE
  5
2F
102
{ACAD_REACTORS
330
2A
102
}
330
2A
100
AcDbVisualStyle
  2
2dWireframe
 70
     4
177
     2
291
     0
 71
     0
176
     1
 72
     2
176
     1
 73
     0
176
     1
 90
        0
176
     1
 40
-0.6
176
     1
 41
-30.0
176
     1
 62
     5
 63
     7
421
 16777215
176
     1
 74
     1
176
     1
 91
        4
176
     1
 64
     7
176
     1
 65
   257
176
     1
 75
     1
176
     1
175
     1
176
     1
 42
1.0
176
     1
 92
        0
176
     1
 66
   257
176
     1
 43
1.0
176
     1
 76
     1
176
     1
 77
     6
176
     1
 78
     2
176
     1
 67
     7
176
     1
 79
     5
176
     1
170
     0
176
     1
171
     0
176
     1
290
     0
176
     1
 93
        1
176
     1
 44
0.0
176
     1
173
     0
176
     1
  0
VISUALSTYLE
  5
31
102
{ACAD_REACTORS
330
2A
102
}
330
2A
100
AcDbVisualStyle
  2
3D Hidden
 70
     6
177
     2
291
     0
 71
     1
176
     1
 72
     2
176
     1
 73
     2
176
     1
 90
        0
176
     1
 40
-0.6
176
     1
 41
-30.0
176
     1
 62
     5
 63
     7
421
 16777215
176
     1
 74
     2
176
     1
 91
        2
176
     1
 64
     7
176
     1
 65
   257
176
     1
 75
     2
176
     1
175
     1
176
     1
 42
40.0
176
     1
 92
        0
176
     1
 66
   257
176
     1
 43
1.0
176
     1
 76
     1
176
     1
 77
     6
176
     1
 78
     2
176
     1
 67
     7
176
     1
 79
     3
176
     1
170
     0
176
     1
171
     0
176
     1
290
     0
176
     1
 93
        1
176
     1
 44
0.0
176
     1
173
     0
176
     1
  0
VISUALSTYLE
  5
30
102
{ACAD_REACTORS
330
2A
102
}
330
2A
100
AcDbVisualStyle
  2
3dWireframe
 70
     5
177
     2
291
     0
 71
     0
176
     1
 72
     2
176
     1
 73
     0
176
     1
 90
        0
176
     1
 40
-0.6
176
     1
 41
-30.0
176
     1
 62
     5
 63
     7
421
 16777215
176
     1
 74
     1
176
     1
 91
        4
176
     1
 64
     7
176
     1
 65
   257
176
     1
 75
     1
176
     1
175
     1
176
     1
 42
1.0
176
     1
 92
        0
176
     1
 66
   257
176
     1
 43
1.0
176
     1
 76
     1
176
     1
 77
     6
176
     1
 78
     2
176
     1
 67
     7
176
     1
 79
     5
176
     1
170
     0
176
     1
171
     0
176
     1
290
     0
176
     1
 93
        1
176
     1
 44
0.0
176
     1
173
     0
176
     1
  0
VISUALSTYLE
  5
32
102
{ACAD_REACTORS
330
2A
102
}
330
2A
100
AcDbVisualStyle
  2
Basic
 70
     7
177
     2
291
     1
 71
     1
176
     1
 72
     0
176
     1
 73
     1
176
     1
 90
        0
176
     1
 40
-0.6
176
     1
 41
-30.0
176
     1
 62
     5
 63
     7
421
 16777215
176
     1
 74
     0
176
     1
 91
        4
176
     1
 64
     7
176
     1
 65
   257
176
     1
 75
     1
176
     1
175
     1
176
     1
 42
1.0
176
     1
 92
        8
176
     1
 66
     7
176
     1
 43
1.0
176
     1
 76
     1
176
     1
 77
     6
176
     1
 78
     2
176
     1
 67
     7
176
     1
 79
     5
176
     1
170
     0
176
     1
171
     0
176
     1
290
     0
176
     1
 93
        1
176
     1
 44
0.0
176
     1
173
     0
176
     1
  0
VISUALSTYLE
  5
36
102
{ACAD_REACTORS
330
2A
102
}
330
2A
100
AcDbVisualStyle
  2
Brighten
 70
    12
177
     2
291
     1
 71
     2
176
     1
 72
     2
176
     1
 73
     0
176
     1
 90
        0
176
     1
 40
-0.6
176
     1
 41
-30.0
176
     1
 62
     5
 63
     7
421
 16777215
176
     1
 74
     1
176
     1
 91
        4
176
     1
 64
     7
176
     1
 65
   257
176
     1
 75
     1
176
     1
175
     1
176
     1
 42
1.0
176
     1
 92
        8
176
     1
 66
     7
176
     1
 43
1.0
176
     1
 76
     1
176
     1
 77
     6
176
     1
 78
     2
176
     1
 67
     7
176
     1
 79
     5
176
     1
170
     0
176
     1
171
     0
176
     1
290
     0
176
     1
 93
        1
176
     1
 44
50.0
176
     1
173
     0
176
     1
  0
VISUALSTYLE
  5
3A
102
{ACAD_REACTORS
330
2A
102
}
330
2A
100
AcDbVisualStyle
  2
ColorChange
 70
    16
177
     2
291
     1
 71
     2
176
     1
 72
     2
176
     1
 73
     3
176
     1
 90
        0
176
     1
 40
-0.6
176
     1
 41
-30.0
176
     1
 62
     5
 63
     8
421
  8421504
176
     1
 74
     1
176
     1
 91
        4
176
     1
 64
     7
176
     1
 65
   257
176
     1
 75
     1
176
     1
175
     1
176
     1
 42
1.0
176
     1
 92
        8
176
     1
 66
     8
424
  8421504
176
     1
 43
1.0
176
     1
 76
     1
176
     1
 77
     6
176
     1
 78
     2
176
     1
 67
     7
176
     1
 79
     5
176
     1
170
     0
176
     1
171
     0
176
     1
290
     0
176
     1
 93
        1
176
     1
 44
0.0
176
     1
173
     0
176
     1
  0
VISUALSTYLE
  5
34
102
{ACAD_REACTORS
330
2A
102
}
330
2A
100
AcDbVisualStyle
  2
Conceptual
 70
     9
177
     2
291
     0
 71
     3
176
     1
 72
     2
176
     1
 73
     0
176
     1
 90
        0
176
     1
 40
-0.6
176
     1
 41
-30.0
176
     1
 62
     5
 63
     7
421
 16777215
176
     1
 74
     2
176
     1
 91
        2
176
     1
 64
     7
176
     1
 65
   257
176
     1
 75
     1
176
     1
175
     1
176
     1
 42
40.0
176
     1
 92
        8
176
     1
 66
     7
176
     1
 43
1.0
176
     1
 76
     1
176
     1
 77
     6
176
     1
 78
     2
176
     1
 67
     7
176
     1
 79
     3
176
     1
170
     0
176
     1
171
     0
176
     1
290
     0
176
     1
 93
        1
176
     1
 44
0.0
176
     1
173
     0
176
     1
  0
VISUALSTYLE
  5
35
102
{ACAD_REACTORS
330
2A
102
}
330
2A
100
AcDbVisualStyle
  2
Dim
 70
    11
177
     2
291
     1
 71
     2
176
     1
 72
     2
176
     1
 73
     0
176
     1
 90
        0
176
     1
 40
-0.6
176
     1
 41
-30.0
176
     1
 62
     5
 63
     7
421
 16777215
176
     1
 74
     1
176
     1
 91
        4
176
     1
 64
     7
176
     1
 65
   257
176
     1
 75
     1
176
     1
175
     1
176
     1
 42
1.0
176
     1
 92
        8
176
     1
 66
     7
176
     1
 43
1.0
176
     1
 76
     1
176
     1
 77
     6
176
     1
 78
     2
176
     1
 67
     7
176
     1
 79
     5
176
     1
170
     0
176
     1
171
     0
176
     1
290
     0
176
     1
 93
        1
176
     1
 44
-50.0
176
     1
173
     0
176
     1
  0
VISUALSTYLE
  5
39
102
{ACAD_REACTORS
330
2A
102
}
330
2A
100
AcDbVisualStyle
  2
Facepattern
 70
    15
177
     2
291
     1
 71
     2
176
     1
 72
     2
176
     1
 73
     0
176
     1
 90
        0
176
     1
 40
-0.6
176
     1
 41
-30.0
176
     1
 62
     5
 63
     7
421
 16777215
176
     1
 74
     1
176
     1
 91
        4
176
     1
 64
     7
176
     1
 65
   257
176
     1
 75
     1
176
     1
175
     1
176
     1
 42
1.0
176
     1
 92
        8
176
     1
 66
     7
176
     1
 43
1.0
176
     1
 76
     1
176
     1
 77
     6
176
     1
 78
     2
176
     1
 67
     7
176
     1
 79
     5
176
     1
170
     0
176
     1
171
     0
176
     1
290
     0
176
     1
 93
        1
176
     1
 44
0.0
176
     1
173
     0
176
     1
  0
VISUALSTYLE
  5
2B
102
{ACAD_REACTORS
330
2A
102
}
330
2A
100
AcDbVisualStyle
  2
Flat
 70
     0
177
     2
291
     1
 71
     2
176
     1
 72
     1
176
     1
 73
     1
176
     1
 90
        2
176
     1
 40
-0.6
176
     1
 41
30.0
176
     1
 62
     5
 63
     7
421
 16777215
176
     1
 74
     0
176
     1
 91
        4
176
     1
 64
     7
176
     1
 65
   257
176
     1
 75
     1
176
     1
175
     1
176
     1
 42
1.0
176
     1
 92
        8
176
     1
 66
     7
176
     1
 43
1.0
176
     1
 76
     1
176
     1
 77
     6
176
     1
 78
     2
176
     1
 67
     7
176
     1
 79
     5
176
     1
170
     0
176
     1
171
     0
176
     1
290
     0
176
     1
 93
       13
176
     1
 44
0.0
176
     1
173
     0
176
     1
  0
VISUALSTYLE
  5
2C
102
{ACAD_REACTORS
330
2A
102
}
330
2A
100
AcDbVisualStyle
  2
FlatWithEdges
 70
     1
177
     2
291
     1
 71
     2
176
     1
 72
     1
176
     1
 73
     1
176
     1
 90
        2
176
     1
 40
-0.6
176
     1
 41
30.0
176
     1
 62
     5
 63
     7
421
 16777215
176
     1
 74
     1
176
     1
 91
        4
176
     1
 64
     7
176
     1
 65
   257
176
     1
 75
     1
176
     1
175
     1
176
     1
 42
1.0
176
     1
 92
        0
176
     1
 66
   257
176
     1
 43
1.0
176
     1
 76
     1
176
     1
 77
     6
176
     1
 78
     2
176
     1
 67
     7
176
     1
 79
     5
176
     1
170
     0
176
     1
171
     0
176
     1
290
     0
176
     1
 93
       13
176
     1
 44
0.0
176
     1
173
     0
176
     1
  0
VISUALSTYLE
  5
2D
102
{ACAD_REACTORS
330
2A
102
}
330
2A
100
AcDbVisualStyle
  2
Gouraud
 70
     2
177
     2
291
     1
 71
     2
176
     1
 72
     2
176
     1
 73
     1
176
     1
 90
        2
176
     1
 40
-0.6
176
     1
 41
30.0
176
     1
 62
     5
 63
     7
421
 16777215
176
     1
 74
     0
176
     1
 91
        4
176
     1
 64
     7
176
     1
 65
   257
176
     1
 75
     1
176
     1
175
     1
176
     1
 42
1.0
176
     1
 92
        0
176
     1
 66
     7
176
     1
 43
1.0
176
     1
 76
     1
176
     1
 77
     6
176
     1
 78
     2
176
     1
 67
     7
176
     1
 79
     5
176
     1
170
     0
176
     1
171
     0
176
     1
290
     0
176
     1
 93
       13
176
     1
 44
0.0
176
     1
173
     0
176
     1
  0
VISUALSTYLE
  5
2E
102
{ACAD_REACTORS
330
2A
102
}
330
2A
100
AcDbVisualStyle
  2
GouraudWithEdges
 70
     3
177
     2
291
     1
 71
     2
176
     1
 72
     2
176
     1
 73
     1
176
     1
 90
        2
176
     1
 40
-0.6
176
     1
 41
30.0
176
     1
 62
     5
 63
     7
421
 16777215
176
     1
 74
     1
176
     1
 91
        4
176
     1
 64
     7
176
     1
 65
   257
176
     1
 75
     1
176
     1
175
     1
176
     1
 42
1.0
176
     1
 92
        0
176
     1
 66
   257
176
     1
 43
1.0
176
     1
 76
     1
176
     1
 77
     6
176
     1
 78
     2
176
     1
 67
     7
176
     1
 79
     5
176
     1
170
     0
176
     1
171
     0
176
     1
290
     0
176
     1
 93
       13
176
     1
 44
0.0
176
     1
173
     0
176
     1
  0
VISUALSTYLE
  5
38
102
{ACAD_REACTORS
330
2A
102
}
330
2A
100
AcDbVisualStyle
  2
Linepattern
 70
    14
177
     2
291
     1
 71
     2
176
     1
 72
     2
176
     1
 73
     0
176
     1
 90
        0
176
     1
 40
-0.6
176
     1
 41
-30.0
176
     1
 62
     5
 63
     7
421
 16777215
176
     1
 74
     1
176
     1
 91
        4
176
     1
 64
     7
176
     1
 65
   257
176
     1
 75
     7
176
     1
175
     7
176
     1
 42
1.0
176
     1
 92
        8
176
     1
 66
     7
176
     1
 43
1.0
176
     1
 76
     1
176
     1
 77
     6
176
     1
 78
     2
176
     1
 67
     7
176
     1
 79
     5
176
     1
170
     0
176
     1
171
     0
176
     1
290
     0
176
     1
 93
        1
176
     1
 44
0.0
176
     1
173
     0
176
     1
  0
VISUALSTYLE
  5
33
102
{ACAD_REACTORS
330
2A
102
}
330
2A
100
AcDbVisualStyle
  2
Realistic
 70
     8
177
     2
291
     0
 71
     2
176
     1
 72
     2
176
     1
 73
     0
176
     1
 90
        0
176
     1
 40
-0.6
176
     1
 41
-30.0
176
     1
 62
     5
 63
     7
421
 16777215
176
     1
 74
     1
176
     1
 91
        0
176
     1
 64
     7
176
     1
 65
   257
176
     1
 75
     1
176
     1
175
     1
176
     1
 42
1.0
176
     1
 92
        8
176
     1
 66
     8
424
  7895160
176
     1
 43
1.0
176
     1
 76
     1
176
     1
 77
     6
176
     1
 78
     2
176
     1
 67
     7
176
     1
 79
     5
176
     1
170
     0
176
     1
171
     0
176
     1
290
     0
176
     1
 93
       13
176
     1
 44
0.0
176
     1
173
     0
176
     1
  0
VISUALSTYLE
  5
37
102
{ACAD_REACTORS
330
2A
102
}
330
2A
100
AcDbVisualStyle
  2
Thicken
 70
    13
177
     2
291
     1
 71
     2
176
     1
 72
     2
176
     1
 73
     0
176
     1
 90
        0
176
     1
 40
-0.6
176
     1
 41
-30.0
176
     1
 62
     5
 63
     7
421
 16777215
176
     1
 74
     1
176
     1
 91
        4
176
     1
 64
     7
176
     1
 65
   257
176
     1
 75
     1
176
     1
175
     1
176
     1
 42
1.0
176
     1
 92
       12
176
     1
 66
     7
176
     1
 43
1.0
176
     1
 76
     1
176
     1
 77
     6
176
     1
 78
     2
176
     1
 67
     7
176
     1
 79
     5
176
     1
170
     0
176
     1
171
     0
176
     1
290
     0
176
     1
 93
        1
176
     1
 44
0.0
176
     1
173
     0
176
     1
  0
ENDSEC
  0
EOF
