  0
SECTION
  2
HEADER
  9
$ACADVER
  1
AC1018
  9
$ACADMAINTVER
 70
    39
  9
$DWGCODEPAGE
  3
ANSI_1252
  9
$INSBASE
 10
0.0
 20
0.0
 30
0.0
  9
$EXTMIN
 10
-178.2334336521589
 20
4.22314277963761
 30
0.0
  9
$EXTMAX
 10
-82.24810315940397
 20
59.42594801688166
 30
0.0
  9
$LIMMIN
 10
0.0
 20
0.0
  9
$LIMMAX
 10
12.0
 20
9.0
  9
$ORTHOMODE
 70
     1
  9
$REGENMODE
 70
     1
  9
$FILLMODE
 70
     1
  9
$QTEXTMODE
 70
     0
  9
$MIRRTEXT
 70
     1
  9
$LTSCALE
 40
1.0
  9
$ATTMODE
 70
     1
  9
$TEXTSIZE
 40
0.2
  9
$TRACEWID
 40
0.05
  9
$TEXTSTYLE
  7
Standard
  9
$CLAYER
  8
0
  9
$CELTYPE
  6
ByLayer
  9
$CECOLOR
 62
     5
  9
$CELTSCALE
 40
1.0
  9
$DISPSILH
 70
     0
  9
$DIMSCALE
 40
1.0
  9
$DIMASZ
 40
0.18
  9
$DIMEXO
 40
0.0625
  9
$DIMDLI
 40
0.38
  9
$DIMRND
 40
0.0
  9
$DIMDLE
 40
0.0
  9
$DIMEXE
 40
0.18
  9
$DIMTP
 40
0.0
  9
$DIMTM
 40
0.0
  9
$DIMTXT
 40
0.18
  9
$DIMCEN
 40
0.09
  9
$DIMTSZ
 40
0.0
  9
$DIMTOL
 70
     0
  9
$DIMLIM
 70
     0
  9
$DIMTIH
 70
     1
  9
$DIMTOH
 70
     1
  9
$DIMSE1
 70
     0
  9
$DIMSE2
 70
     0
  9
$DIMTAD
 70
     0
  9
$DIMZIN
 70
     0
  9
$DIMBLK
  1

  9
$DIMASO
 70
     1
  9
$DIMSHO
 70
     1
  9
$DIMPOST
  1

  9
$DIMAPOST
  1

  9
$DIMALT
 70
     0
  9
$DIMALTD
 70
     2
  9
$DIMALTF
 40
25.4
  9
$DIMLFAC
 40
1.0
  9
$DIMTOFL
 70
     0
  9
$DIMTVP
 40
0.0
  9
$DIMTIX
 70
     0
  9
$DIMSOXD
 70
     0
  9
$DIMSAH
 70
     0
  9
$DIMBLK1
  1

  9
$DIMBLK2
  1

  9
$DIMSTYLE
  2
Standard
  9
$DIMCLRD
 70
     0
  9
$DIMCLRE
 70
     0
  9
$DIMCLRT
 70
     0
  9
$DIMTFAC
 40
1.0
  9
$DIMGAP
 40
0.09
  9
$DIMJUST
 70
     0
  9
$DIMSD1
 70
     0
  9
$DIMSD2
 70
     0
  9
$DIMTOLJ
 70
     1
  9
$DIMTZIN
 70
     0
  9
$DIMALTZ
 70
     0
  9
$DIMALTTZ
 70
     0
  9
$DIMUPT
 70
     0
  9
$DIMDEC
 70
     4
  9
$DIMTDEC
 70
     4
  9
$DIMALTU
 70
     2
  9
$DIMALTTD
 70
     2
  9
$DIMTXSTY
  7
Standard
  9
$DIMAUNIT
 70
     0
  9
$DIMADEC
 70
     0
  9
$DIMALTRND
 40
0.0
  9
$DIMAZIN
 70
     0
  9
$DIMDSEP
 70
    46
  9
$DIMATFIT
 70
     3
  9
$DIMFRAC
 70
     0
  9
$DIMLDRBLK
  1

  9
$DIMLUNIT
 70
     2
  9
$DIMLWD
 70
    -2
  9
$DIMLWE
 70
    -2
  9
$DIMTMOVE
 70
     0
  9
$LUNITS
 70
     2
  9
$LUPREC
 70
     2
  9
$SKETCHINC
 40
0.1
  9
$FILLETRAD
 40
0.5
  9
$AUNITS
 70
     0
  9
$AUPREC
 70
     0
  9
$MENU
  1
.
  9
$ELEVATION
 40
0.0
  9
$PELEVATION
 40
0.0
  9
$THICKNESS
 40
0.0
  9
$LIMCHECK
 70
     0
  9
$CHAMFERA
 40
0.5
  9
$CHAMFERB
 40
0.5
  9
$CHAMFERC
 40
1.0
  9
$CHAMFERD
 40
0.0
  9
$SKPOLY
 70
     0
  9
$TDCREATE
 40
2454986.492464931
  9
$TDUCREATE
 40
2454986.409131597
  9
$TDUPDATE
 40
2454992.680581748
  9
$TDUUPDATE
 40
2454992.597248415
  9
$TDINDWG
 40
0.0444575463
  9
$TDUSRTIMER
 40
0.0444575463
  9
$USRTIMER
 70
     1
  9
$ANGBASE
 50
0.0
  9
$ANGDIR
 70
     0
  9
$PDMODE
 70
     0
  9
$PDSIZE
 40
0.0
  9
$PLINEWID
 40
0.0
  9
$SPLFRAME
 70
     0
  9
$SPLINETYPE
 70
     6
  9
$SPLINESEGS
 70
     8
  9
$HANDSEED
  5
CA3
  9
$SURFTAB1
 70
     6
  9
$SURFTAB2
 70
     6
  9
$SURFTYPE
 70
     6
  9
$SURFU
 70
     6
  9
$SURFV
 70
     6
  9
$UCSBASE
  2

  9
$UCSNAME
  2

  9
$UCSORG
 10
0.0
 20
0.0
 30
0.0
  9
$UCSXDIR
 10
1.0
 20
0.0
 30
0.0
  9
$UCSYDIR
 10
0.0
 20
1.0
 30
0.0
  9
$UCSORTHOREF
  2

  9
$UCSORTHOVIEW
 70
     0
  9
$UCSORGTOP
 10
0.0
 20
0.0
 30
0.0
  9
$UCSORGBOTTOM
 10
0.0
 20
0.0
 30
0.0
  9
$UCSORGLEFT
 10
0.0
 20
0.0
 30
0.0
  9
$UCSORGRIGHT
 10
0.0
 20
0.0
 30
0.0
  9
$UCSORGFRONT
 10
0.0
 20
0.0
 30
0.0
  9
$UCSORGBACK
 10
0.0
 20
0.0
 30
0.0
  9
$PUCSBASE
  2

  9
$PUCSNAME
  2

  9
$PUCSORG
 10
0.0
 20
0.0
 30
0.0
  9
$PUCSXDIR
 10
1.0
 20
0.0
 30
0.0
  9
$PUCSYDIR
 10
0.0
 20
1.0
 30
0.0
  9
$PUCSORTHOREF
  2

  9
$PUCSORTHOVIEW
 70
     0
  9
$PUCSORGTOP
 10
0.0
 20
0.0
 30
0.0
  9
$PUCSORGBOTTOM
 10
0.0
 20
0.0
 30
0.0
  9
$PUCSORGLEFT
 10
0.0
 20
0.0
 30
0.0
  9
$PUCSORGRIGHT
 10
0.0
 20
0.0
 30
0.0
  9
$PUCSORGFRONT
 10
0.0
 20
0.0
 30
0.0
  9
$PUCSORGBACK
 10
0.0
 20
0.0
 30
0.0
  9
$USERI1
 70
     0
  9
$USERI2
 70
     0
  9
$USERI3
 70
     0
  9
$USERI4
 70
     0
  9
$USERI5
 70
     0
  9
$USERR1
 40
0.0
  9
$USERR2
 40
0.0
  9
$USERR3
 40
0.0
  9
$USERR4
 40
0.0
  9
$USERR5
 40
0.0
  9
$WORLDVIEW
 70
     1
  9
$SHADEDGE
 70
     3
  9
$SHADEDIF
 70
    70
  9
$TILEMODE
 70
     1
  9
$MAXACTVP
 70
    64
  9
$PINSBASE
 10
0.0
 20
0.0
 30
0.0
  9
$PLIMCHECK
 70
     0
  9
$PEXTMIN
 10
1.000000000000000E+20
 20
1.000000000000000E+20
 30
1.000000000000000E+20
  9
$PEXTMAX
 10
-1.000000000000000E+20
 20
-1.000000000000000E+20
 30
-1.000000000000000E+20
  9
$PLIMMIN
 10
0.0
 20
0.0
  9
$PLIMMAX
 10
12.0
 20
9.0
  9
$UNITMODE
 70
     0
  9
$VISRETAIN
 70
     1
  9
$PLINEGEN
 70
     0
  9
$PSLTSCALE
 70
     1
  9
$TREEDEPTH
 70
  3020
  9
$CMLSTYLE
  2
Standard
  9
$CMLJUST
 70
     0
  9
$CMLSCALE
 40
1.0
  9
$PROXYGRAPHICS
 70
     1
  9
$MEASUREMENT
 70
     0
  9
$CELWEIGHT
370
    -1
  9
$ENDCAPS
280
     0
  9
$JOINSTYLE
280
     0
  9
$LWDISPLAY
290
     0
  9
$INSUNITS
 70
     4
  9
$HYPERLINKBASE
  1

  9
$STYLESHEET
  1

  9
$XEDIT
290
     1
  9
$CEPSNTYPE
380
     0
  9
$PSTYLEMODE
290
     1
  9
$FINGERPRINTGUID
  2
{14BB9FAA-451D-4071-9340-1ECC45E1C1CD}
  9
$VERSIONGUID
  2
{EF7EB7C6-4018-4ED7-97DB-8704DCB7EF08}
  9
$EXTNAMES
290
     1
  9
$PSVPSCALE
 40
0.0
  9
$OLESTARTUP
290
     0
  9
$SORTENTS
280
   127
  9
$INDEXCTL
280
     0
  9
$HIDETEXT
280
     1
  9
$XCLIPFRAME
290
     0
  9
$HALOGAP
280
     0
  9
$OBSCOLOR
 70
   257
  9
$OBSLTYPE
280
     0
  9
$INTERSECTIONDISPLAY
280
     0
  9
$INTERSECTIONCOLOR
 70
   257
  9
$DIMASSOC
280
     2
  9
$PROJECTNAME
  1

  0
ENDSEC
  0
SECTION
  2
CLASSES
  0
CLASS
  1
ACDBDICTIONARYWDFLT
  2
AcDbDictionaryWithDefault
  3
ObjectDBX Classes
 90
        0
 91
        1
280
     0
281
     0
  0
CLASS
  1
TABLESTYLE
  2
AcDbTableStyle
  3
ObjectDBX Classes
 90
     2047
 91
        1
280
     0
281
     0
  0
CLASS
  1
DICTIONARYVAR
  2
AcDbDictionaryVar
  3
ObjectDBX Classes
 90
        0
 91
        1
280
     0
281
     0
  0
CLASS
  1
SORTENTSTABLE
  2
AcDbSortentsTable
  3
ObjectDBX Classes
 90
        0
 91
        1
280
     0
281
     0
  0
ENDSEC
  0
SECTION
  2
TABLES
  0
TABLE
  2
VPORT
  5
8
330
0
100
AcDbSymbolTable
 70
     8
  0
VPORT
  5
CA2
330
8
100
AcDbSymbolTableRecord
100
AcDbViewportTableRecord
  2
*Active
 70
     0
 10
0.0
 20
0.0
 11
1.0
 21
1.0
 12
-0.0751131640719223
 22
-2.373920887464556
 13
0.0
 23
0.0
 14
0.5
 24
0.5
 15
0.5
 25
0.5
 16
0.0
 26
0.0
 36
1.0
 17
-130.2860326132522
 27
31.68800842812657
 37
0.0
 40
121.2379810462244
 41
1.489236790606653
 42
50.0
 43
0.0
 44
0.0
 50
0.0
 51
0.0
 71
     0
 72
   100
 73
     1
 74
     3
 75
     0
 76
     0
 77
     0
 78
     0
281
     0
 65
     1
110
0.0
120
0.0
130
0.0
111
1.0
121
0.0
131
0.0
112
0.0
122
1.0
132
0.0
 79
     0
146
0.0
  0
ENDTAB
  0
TABLE
  2
LTYPE
  5
5
330
0
100
AcDbSymbolTable
 70
     1
  0
LTYPE
  5
14
330
5
100
AcDbSymbolTableRecord
100
AcDbLinetypeTableRecord
  2
ByBlock
 70
     0
  3

 72
    65
 73
     0
 40
0.0
  0
LTYPE
  5
15
330
5
100
AcDbSymbolTableRecord
100
AcDbLinetypeTableRecord
  2
ByLayer
 70
     0
  3

 72
    65
 73
     0
 40
0.0
  0
LTYPE
  5
16
330
5
100
AcDbSymbolTableRecord
100
AcDbLinetypeTableRecord
  2
Continuous
 70
     0
  3
Solid line
 72
    65
 73
     0
 40
0.0
  0
ENDTAB
  0
TABLE
  2
LAYER
  5
2
330
0
100
AcDbSymbolTable
 70
     2
  0
LAYER
  5
10
330
2
100
AcDbSymbolTableRecord
100
AcDbLayerTableRecord
  2
0
 70
     0
 62
     7
  6
Continuous
370
    -3
390
F
  0
LAYER
  5
2A
330
2
100
AcDbSymbolTableRecord
100
AcDbLayerTableRecord
  2
LINEE VISIBILI 2D
 70
     0
 62
     7
  6
Continuous
370
    -3
390
F
  0
ENDTAB
  0
TABLE
  2
STYLE
  5
3
330
0
100
AcDbSymbolTable
 70
     1
  0
STYLE
  5
11
330
3
100
AcDbSymbolTableRecord
100
AcDbTextStyleTableRecord
  2
Standard
 70
     0
 40
0.0
 41
1.0
 50
0.0
 71
     0
 42
0.2
  3
txt
  4

  0
ENDTAB
  0
TABLE
  2
VIEW
  5
6
330
0
100
AcDbSymbolTable
 70
     0
  0
ENDTAB
  0
TABLE
  2
UCS
  5
7
330
0
100
AcDbSymbolTable
 70
     0
  0
ENDTAB
  0
TABLE
  2
APPID
  5
9
330
0
100
AcDbSymbolTable
 70
     1
  0
APPID
  5
12
330
9
100
AcDbSymbolTableRecord
100
AcDbRegAppTableRecord
  2
ACAD
 70
     0
  0
ENDTAB
  0
TABLE
  2
DIMSTYLE
  5
A
330
0
100
AcDbSymbolTable
 70
     1
100
AcDbDimStyleTable
 71
     0
  0
DIMSTYLE
105
27
330
A
100
AcDbSymbolTableRecord
100
AcDbDimStyleTableRecord
  2
Standard
 70
     0
340
11
  0
ENDTAB
  0
TABLE
  2
BLOCK_RECORD
  5
1
330
0
100
AcDbSymbolTable
 70
     1
  0
BLOCK_RECORD
  5
1F
102
{ACAD_XDICTIONARY
360
C96
102
}
330
1
100
AcDbSymbolTableRecord
100
AcDbBlockTableRecord
  2
*Model_Space
340
22
  0
BLOCK_RECORD
  5
1B
330
1
100
AcDbSymbolTableRecord
100
AcDbBlockTableRecord
  2
*Paper_Space
340
1E
  0
BLOCK_RECORD
  5
23
330
1
100
AcDbSymbolTableRecord
100
AcDbBlockTableRecord
  2
*Paper_Space0
340
26
  0
ENDTAB
  0
ENDSEC
  0
SECTION
  2
BLOCKS
  0
BLOCK
  5
20
330
1F
100
AcDbEntity
  8
0
100
AcDbBlockBegin
  2
*Model_Space
 70
     0
 10
0.0
 20
0.0
 30
0.0
  3
*Model_Space
  1

  0
ENDBLK
  5
21
330
1F
100
AcDbEntity
  8
0
100
AcDbBlockEnd
  0
BLOCK
  5
1C
330
1B
100
AcDbEntity
 67
     1
  8
0
100
AcDbBlockBegin
  2
*Paper_Space
 70
     0
 10
0.0
 20
0.0
 30
0.0
  3
*Paper_Space
  1

  0
ENDBLK
  5
1D
330
1B
100
AcDbEntity
 67
     1
  8
0
100
AcDbBlockEnd
  0
BLOCK
  5
24
330
23
100
AcDbEntity
  8
0
100
AcDbBlockBegin
  2
*Paper_Space0
 70
     0
 10
0.0
 20
0.0
 30
0.0
  3
*Paper_Space0
  1

  0
ENDBLK
  5
25
330
23
100
AcDbEntity
  8
0
100
AcDbBlockEnd
  0
ENDSEC
  0
SECTION
  2
ENTITIES
  0
SPLINE
  5
C61
330
1F
100
AcDbEntity
  8
0
100
AcDbSpline
210
0.0
220
0.0
230
1.0
 70
     8
 71
     3
 72
    29
 73
    25
 74
    23
 42
0.0000000001
 43
0.0000000001
 44
0.0000000001
 40
0.0
 40
0.0
 40
0.0
 40
0.0
 40
1.049857294134904
 40
3.419085806612285
 40
5.760124006096957
 40
6.680867068414586
 40
7.831604483056302
 40
10.10500209444139
 40
11.15963998449729
 40
12.62622172722383
 40
13.5145543247363
 40
14.31127817012387
 40
15.4791253854336
 40
16.39627351665185
 40
16.88160069809107
 40
17.88074471453541
 40
18.96277509147129
 40
19.8601040420701
 40
20.34905589456544
 40
21.81604557187049
 40
23.09108444316272
 40
24.4655816221951
 40
25.61145940378259
 40
26.06988027861118
 40
26.06988027861118
 40
26.06988027861118
 40
26.06988027861118
 10
-102.5988345031914
 20
58.1675517210655
 30
0.0
 10
-102.2484388361037
 20
58.17553342467371
 30
0.0
 10
-101.1073000749302
 20
58.20152755708763
 30
0.0
 10
-99.20858639316485
 20
57.81724336922136
 30
0.0
 10
-97.41153551254519
 20
57.27040249953637
 30
0.0
 10
-96.05910880583278
 20
56.68817708500029
 30
0.0
 10
-94.77099523650766
 20
56.02521594935105
 30
0.0
 10
-93.51638121022419
 20
55.19947063090764
 30
0.0
 10
-92.32224547821264
 20
54.13470820302336
 30
0.0
 10
-91.567725608257
 20
53.27697400471326
 30
0.0
 10
-91.00513445547575
 20
52.38556891028316
 30
0.0
 10
-90.62014563720964
 20
51.51323290311972
 30
0.0
 10
-90.41377886904427
 20
50.55994067543325
 30
0.0
 10
-90.48638249294919
 20
49.69609899955649
 30
0.0
 10
-90.69715562143258
 20
48.92241916123548
 30
0.0
 10
-91.06449600963825
 20
48.14174322259047
 30
0.0
 10
-91.65388266258574
 20
47.33732192988335
 30
0.0
 10
-92.22130274977676
 20
46.73953954725789
 30
0.0
 10
-92.92696371348997
 20
46.10138329868938
 30
0.0
 10
-93.79517312832133
 20
45.45845720231745
 30
0.0
 10
-94.97329769622195
 20
44.75263835310233
 30
0.0
 10
-96.10742818097419
 20
44.1892560579054
 30
0.0
 10
-97.02321989573036
 20
43.80384983928776
 30
0.0
 10
-97.52526664670813
 20
43.61961199236159
 30
0.0
 10
-97.66872416932566
 20
43.56696688502657
 30
0.0
 11
-102.5988345031914
 21
58.1675517210655
 31
0.0
 11
-101.5489772091286
 21
58.16753941332996
 31
0.0
 11
-99.21180206432918
 21
57.77913744774867
 31
0.0
 11
-96.9795028529583
 21
57.07394238086338
 31
0.0
 11
-96.13370660608705
 21
56.71007908842437
 31
0.0
 11
-95.11014718793616
 21
56.18422481681396
 31
0.0
 11
-93.22322273501288
 21
54.91621345708106
 31
0.0
 11
-92.43709055940012
 21
54.21317911822706
 31
0.0
 11
-91.47884221183238
 21
53.10294395733433
 31
0.0
 11
-91.00918191509784
 21
52.34891875253381
 31
0.0
 11
-90.69069107376519
 21
51.61862260041715
 31
0.0
 11
-90.46114709302335
 21
50.47355636686912
 31
0.0
 11
-90.53427593994916
 21
49.5593283502647
 31
0.0
 11
-90.66084651816243
 21
49.09079621500129
 31
0.0
 11
-91.0788954488618
 21
48.18331406248388
 31
0.0
 11
-91.70936043299558
 21
47.30393721471428
 31
0.0
 11
-92.32530788194655
 21
46.65139757169359
 31
0.0
 11
-92.68769418308249
 21
46.32314449431635
 31
0.0
 11
-93.86047200328448
 21
45.44186650312298
 31
0.0
 11
-94.95257812150464
 21
44.78381760687568
 31
0.0
 11
-96.1822054117381
 21
44.16960329388624
 31
0.0
 11
-97.23907226167279
 21
43.72680723265151
 31
0.0
 11
-97.66872416932566
 21
43.56696688502657
 31
0.0
  0
SPLINE
  5
C62
330
1F
100
AcDbEntity
  8
0
100
AcDbSpline
210
0.0
220
0.0
230
1.0
 70
     8
 71
     3
 72
    21
 73
    17
 74
    15
 42
0.0000000001
 43
0.0000000001
 44
0.0000000001
 40
0.0
 40
0.0
 40
0.0
 40
0.0
 40
1.060776523241704
 40
3.978707690256289
 40
6.694645616353447
 40
9.102835795579183
 40
10.31488186123144
 40
11.91143504701377
 40
13.86902922465297
 40
15.40968637452363
 40
16.23263735610807
 40
17.10161690180826
 40
19.94425493999192
 40
22.71750132497166
 40
23.70370811328088
 40
25.62386693982738
 40
25.62386693982738
 40
25.62386693982738
 40
25.62386693982738
 10
-102.5988345031914
 20
58.1675517210655
 30
0.0
 10
-102.2470563989144
 20
58.13190723671457
 30
0.0
 10
-100.9276246259775
 20
57.99821368213923
 30
0.0
 10
-98.73116863287112
 20
57.54160011085029
 30
0.0
 10
-96.22468074496037
 20
56.56348258658522
 30
0.0
 10
-94.37798893830759
 20
55.52050982822293
 30
0.0
 10
-92.98138014442658
 20
54.48279001482834
 30
0.0
 10
-91.81030984399423
 20
53.39551566148923
 30
0.0
 10
-90.84165872764666
 20
51.99119469367802
 30
0.0
 10
-90.43019963991611
 20
50.52353934870045
 30
0.0
 10
-90.77185881218943
 20
49.47635239962765
 30
0.0
 10
-91.53701801183348
 20
48.16273970058886
 30
0.0
 10
-93.38318039637858
 20
46.87145551087818
 30
0.0
 10
-95.40641421096195
 20
46.03081930732693
 30
0.0
 10
-97.20927657380693
 20
45.44530365162029
 30
0.0
 10
-98.1523200092268
 20
45.22185186968
 30
0.0
 10
-98.77536384345136
 20
45.07422319240447
 30
0.0
 11
-102.5988345031914
 21
58.1675517210655
 31
0.0
 11
-101.5444990294235
 21
58.05083179553642
 31
0.0
 11
-98.68971007404212
 21
57.44709152384067
 31
0.0
 11
-96.15787180016178
 21
56.46418065640276
 31
0.0
 11
-94.06739675401331
 21
55.26864980328777
 31
0.0
 11
-93.09583104070943
 21
54.5440011090949
 31
0.0
 11
-91.93887873751405
 21
53.44379956248509
 31
0.0
 11
-90.86635433619838
 21
51.8061590729669
 31
0.0
 11
-90.56362284425171
 21
50.29553731447428
 31
0.0
 11
-90.79223048737384
 21
49.50497620766665
 31
0.0
 11
-91.22757425475013
 21
48.75291154618338
 31
0.0
 11
-93.43425342671228
 21
46.96094110888338
 31
0.0
 11
-95.97650783558453
 21
45.8528625772022
 31
0.0
 11
-96.91517358101009
 21
45.55035563898116
 31
0.0
 11
-98.77536384345136
 21
45.07422319240447
 31
0.0
  0
SPLINE
  5
C66
330
1F
100
AcDbEntity
  8
0
100
AcDbSpline
210
0.0
220
0.0
230
1.0
 70
     8
 71
     3
 72
    40
 73
    36
 74
    34
 42
0.0000000001
 43
0.0000000001
 44
0.0000000001
 40
0.0
 40
0.0
 40
0.0
 40
0.0
 40
2.139839624715673
 40
4.975066794153057
 40
8.436601881882685
 40
12.26488596649306
 40
16.01561475380353
 40
20.4412751451358
 40
21.85610008502783
 40
22.94061896243185
 40
23.569119923181
 40
24.77205104370348
 40
26.29780316704757
 40
27.05620601690926
 40
29.40071318305496
 40
31.49374535107827
 40
35.37020880412806
 40
38.2512033498391
 40
41.33544023224371
 40
44.38465359294344
 40
48.0482628732525
 40
54.62732087346529
 40
57.79333930513807
 40
60.80555847359249
 40
65.28341569614858
 40
67.04609306933872
 40
69.86183264046076
 40
71.19787637495557
 40
72.12054484224693
 40
74.0493222281722
 40
77.71771316893373
 40
82.46586762956621
 40
88.05659816627681
 40
93.97706162947576
 40
95.60787563746941
 40
95.60787563746941
 40
95.60787563746941
 40
95.60787563746941
 10
-102.9675776480049
 20
59.12207146594167
 30
0.0
 10
-102.2541702733366
 20
59.14075799925274
 30
0.0
 10
-100.5955182419313
 20
59.18420366232952
 30
0.0
 10
-97.78749651128988
 20
58.95873732283729
 30
0.0
 10
-94.4418501404405
 20
58.52808507551381
 30
0.0
 10
-90.83979784115225
 20
57.64905032431087
 30
0.0
 10
-87.18015191016702
 20
56.14376600926703
 30
0.0
 10
-84.1744575573923
 20
54.59809141921192
 30
0.0
 10
-83.00423311913972
 20
52.57365385170738
 30
0.0
 10
-82.64138380716444
 20
51.58310210312695
 30
0.0
 10
-82.59953476713334
 20
50.60289247766551
 30
0.0
 10
-82.88927690900091
 20
49.49755349281868
 30
0.0
 10
-83.53545027481766
 20
48.51263048970726
 30
0.0
 10
-84.56606698124666
 20
47.36274649176862
 30
0.0
 10
-85.94475328087682
 20
46.2979564153751
 30
0.0
 10
-88.16483852813073
 20
44.64483642089784
 30
0.0
 10
-90.7181561790666
 20
43.13614180330564
 30
0.0
 10
-93.75676447561426
 20
41.88554180633
 30
0.0
 10
-96.63759937545842
 20
41.01135612190632
 30
0.0
 10
-99.84668177241525
 20
40.39046223315476
 30
0.0
 10
-104.2799812770768
 20
39.98546303798212
 30
0.0
 10
-108.7402141938839
 20
40.78466717468614
 30
0.0
 10
-112.808310476744
 20
42.0286781676092
 30
0.0
 10
-116.0550808485729
 20
43.48525367616271
 30
0.0
 10
-118.707590559504
 20
45.10288140402503
 30
0.0
 10
-121.0339579817002
 20
47.01500776226828
 30
0.0
 10
-122.5248232262825
 20
48.3573839797249
 30
0.0
 10
-123.2955407223117
 20
49.89429723708791
 30
0.0
 10
-123.5234935683361
 20
51.29368298674245
 30
0.0
 10
-122.7540987999226
 20
53.45903420006401
 30
0.0
 10
-119.9414151243789
 20
55.66868061991745
 30
0.0
 10
-115.668422664866
 20
57.5612299052754
 30
0.0
 10
-110.3588673666578
 20
58.80134355212745
 30
0.0
 10
-105.977834390774
 20
59.18277454554996
 30
0.0
 10
-103.4609887547984
 20
59.1304018186018
 30
0.0
 10
-102.9174373974598
 20
59.11909112619648
 30
0.0
 11
-102.9675776480049
 21
59.12207146594167
 31
0.0
 11
-100.8278662506949
 21
59.14549700168453
 31
0.0
 11
-97.99902622881397
 21
58.95529386574669
 31
0.0
 11
-94.56990012418891
 21
58.48272712743098
 31
0.0
 11
-90.85588616459236
 21
57.55436332998785
 31
0.0
 11
-87.37123274112594
 21
56.16686307619212
 31
0.0
 11
-83.71515925143997
 21
53.67295118171334
 31
0.0
 11
-82.99084737520539
 21
52.45759036430723
 31
0.0
 11
-82.65828012389912
 21
51.42532091362865
 31
0.0
 11
-82.62948908701043
 21
50.79747974433702
 31
0.0
 11
-82.91391609872826
 21
49.62865787778646
 31
0.0
 11
-83.71571447198913
 21
48.33056739152397
 31
0.0
 11
-84.2208167099719
 21
47.76484076861929
 31
0.0
 11
-86.01357354998004
 21
46.25396791999416
 31
0.0
 11
-87.70436172078024
 21
45.02026657126245
 31
0.0
 11
-91.05038348961414
 21
43.06294512977149
 31
0.0
 11
-93.70908467896008
 21
41.95324356710371
 31
0.0
 11
-96.66116208288352
 21
41.06007160827966
 31
0.0
 11
-99.65371384787143
 21
40.47497669893801
 31
0.0
 11
-103.3064036333861
 21
40.19232799548624
 31
0.0
 11
-109.8144307126429
 21
41.15647928331628
 31
0.0
 11
-112.8343208068293
 21
42.10723505044413
 31
0.0
 11
-115.5866980125903
 21
43.33111577829764
 31
0.0
 11
-119.3902299759333
 21
45.69423869288036
 31
0.0
 11
-120.760185578305
 21
46.80340647526811
 31
0.0
 11
-122.706487012566
 21
48.83817920443868
 31
0.0
 11
-123.2813159868379
 21
50.04424077451723
 31
0.0
 11
-123.4172398668599
 21
50.95684243974338
 31
0.0
 11
-122.8571162854144
 21
52.80249781872542
 31
0.0
 11
-120.1819371791734
 21
55.31257926039082
 31
0.0
 11
-115.8785746168858
 21
57.31907905842859
 31
0.0
 11
-110.4480599660183
 21
58.64790506691199
 31
0.0
 11
-104.5481127283851
 21
59.14035832582843
 31
0.0
 11
-102.9174373974598
 21
59.11909112619648
 31
0.0
  0
SPLINE
  5
C67
330
1F
100
AcDbEntity
  8
0
100
AcDbSpline
210
0.0
220
0.0
230
1.0
 70
     8
 71
     3
 72
    11
 73
     7
 74
     5
 42
0.0000000001
 43
0.0000000001
 44
0.0000000001
 40
0.0
 40
0.0
 40
0.0
 40
0.0
 40
4.118527961180634
 40
7.573686812649318
 40
11.16374911351051
 40
14.8507535600661
 40
14.8507535600661
 40
14.8507535600661
 40
14.8507535600661
 10
-108.4555550491898
 20
42.39701349823894
 30
0.0
 10
-109.8179056347291
 20
42.59077808539986
 30
0.0
 10
-112.3231737210834
 20
42.94709770065346
 30
0.0
 10
-115.8675860306029
 20
44.10207671109309
 30
0.0
 10
-119.1698340336706
 20
45.562555760746
 30
0.0
 10
-121.0225755564535
 20
47.14809911347905
 30
0.0
 10
-121.9612870551825
 20
47.95143177410204
 30
0.0
 11
-108.4555550491898
 21
42.39701349823894
 31
0.0
 11
-112.5128358355502
 21
43.10464701048785
 31
0.0
 11
-115.8081517510413
 21
44.14340381840462
 31
0.0
 11
-119.0459686878329
 21
45.69423869288036
 31
0.0
 11
-121.9612870551825
 21
47.95143177410204
 31
0.0
  0
SPLINE
  5
C68
330
1F
100
AcDbEntity
  8
0
100
AcDbSpline
210
0.0
220
0.0
230
1.0
 70
     8
 71
     3
 72
    18
 73
    14
 74
    12
 42
0.0000000001
 43
0.0000000001
 44
0.0000000001
 40
0.0
 40
0.0
 40
0.0
 40
0.0
 40
2.917685375507845
 40
7.666371557144167
 40
9.832940456454617
 40
11.10875487096342
 40
13.02448985528269
 40
15.46585196058843
 40
17.64671674708036
 40
20.49285373632324
 40
24.05492765836028
 40
26.02063949438503
 40
26.46236805742613
 40
26.46236805742613
 40
26.46236805742613
 40
26.46236805742613
 10
-107.3348188986471
 20
45.07131355864721
 30
0.0
 10
-108.2742079268569
 20
45.31460083745733
 30
0.0
 10
-110.742501933954
 20
45.95385093965874
 30
0.0
 10
-113.8267771145013
 20
47.29821776961194
 30
0.0
 10
-115.5804706885381
 20
49.63433449048402
 30
0.0
 10
-115.4991110835732
 20
51.49806542462347
 30
0.0
 10
-114.5309693675395
 20
53.16770950127897
 30
0.0
 10
-112.9432537595752
 20
54.68232669724366
 30
0.0
 10
-110.8597298998099
 20
56.06020408093022
 30
0.0
 10
-108.250068213154
 20
57.26903782072477
 30
0.0
 10
-105.5367308460914
 20
57.98430739336049
 30
0.0
 10
-103.5481118038935
 20
58.20571149318102
 30
0.0
 10
-102.7460082593089
 20
58.17346792383435
 30
0.0
 10
-102.5988345031914
 20
58.1675517210655
 30
0.0
 11
-107.3348188986471
 21
45.07131355864721
 31
0.0
 11
-110.1437737769005
 21
45.86040192023207
 31
0.0
 11
-114.3120169617487
 21
48.13543361311683
 31
0.0
 11
-115.4585307719594
 21
49.9737825676017
 31
0.0
 11
-115.4289163963264
 21
51.24925322936712
 31
0.0
 11
-114.5615283803015
 21
52.95737458331159
 31
0.0
 11
-112.8333988072527
 21
54.68185047701877
 31
0.0
 11
-111.0218115564837
 21
55.89606744684402
 31
0.0
 11
-108.4420765567843
 21
57.09834158066799
 31
0.0
 11
-104.9985702914655
 21
58.00973349788407
 31
0.0
 11
-103.0403518982905
 21
58.18120870576896
 31
0.0
 11
-102.5988345031914
 21
58.1675517210655
 31
0.0
  0
LINE
  5
C6E
330
1F
100
AcDbEntity
  8
0
100
AcDbLine
 10
-104.548112728385
 20
59.14035832582843
 30
0.0
 11
-104.5491401264227
 21
58.05898105761771
 31
0.0
  0
LINE
  5
C6F
330
1F
100
AcDbEntity
  8
0
100
AcDbLine
 10
-101.5481026460086
 20
59.14973228767403
 30
0.0
 11
-101.5497543680646
 21
58.16757494191744
 31
0.0
  0
LWPOLYLINE
  5
C76
330
1F
100
AcDbEntity
  8
0
100
AcDbPolyline
 90
        4
 70
     0
 43
0.0
 10
-110.1121349062598
 20
22.80212290012386
 10
-110.1121349062598
 20
24.40202388964692
 10
-95.96794068480539
 20
24.40202388964692
 10
-95.96794068480539
 20
22.59919901371991
  0
LWPOLYLINE
  5
C77
330
1F
100
AcDbEntity
  8
0
100
AcDbPolyline
 90
        4
 70
     0
 43
0.0
 10
-109.8805442658435
 20
22.76452470420793
 10
-109.8805442658435
 20
23.15110918663606
 10
-96.28054426584355
 20
23.15110918663606
 10
-96.28054426584355
 20
22.57802387129382
  0
SPLINE
  5
C78
330
1F
100
AcDbEntity
  8
0
100
AcDbSpline
210
0.0
220
0.0
230
1.0
 70
     8
 71
     3
 72
    18
 73
    14
 74
    12
 42
0.0000000001
 43
0.0000000001
 44
0.0000000001
 40
0.0
 40
0.0
 40
0.0
 40
0.0
 40
0.7694521551997921
 40
2.792365912054524
 40
10.7101331677526
 40
17.68930144917056
 40
25.4801866360867
 40
31.26009887457892
 40
35.56932130423256
 40
38.39699272228609
 40
38.73878222179343
 40
38.90458994741943
 40
38.96112769750793
 40
38.96112769750793
 40
38.96112769750793
 40
38.96112769750793
 10
-121.3576172300718
 20
19.67597236483418
 30
0.0
 10
-121.110450201035
 20
19.74556900469287
 30
0.0
 10
-120.2134733301509
 20
19.99813738522393
 30
0.0
 10
-116.6407056721705
 20
20.31081927545648
 30
0.0
 10
-111.0263332620371
 20
20.68406554964755
 30
0.0
 10
-103.4761316605275
 20
21.20237524421515
 30
0.0
 10
-96.63916150499964
 20
21.54649432213692
 30
0.0
 10
-90.68180526312827
 20
21.92904897823896
 30
0.0
 10
-86.420145495316
 20
22.40104742958584
 30
0.0
 10
-83.91576874312136
 20
22.73272910632014
 30
0.0
 10
-82.89541339316375
 20
23.19488299519466
 30
0.0
 10
-82.7509662546929
 20
23.31964540334368
 30
0.0
 10
-82.70732334036649
 20
23.37962734913615
 30
0.0
 10
-82.69622587065008
 20
23.39487948885313
 30
0.0
 11
-121.3576172300718
 21
19.67597236483418
 31
0.0
 11
-120.6134948727425
 21
19.87177465405533
 31
0.0
 11
-118.6078826945209
 21
20.13578196122938
 31
0.0
 11
-110.7108252122401
 21
20.70807684759354
 31
0.0
 11
-103.746546108418
 21
21.16371537144459
 31
0.0
 11
-95.96794068480539
 21
21.60096776932593
 31
0.0
 11
-90.20256710366529
 21
22.01066638363175
 31
0.0
 11
-85.91848905764821
 21
22.47550317634983
 31
0.0
 11
-83.15633207111533
 21
23.0806597100041
 31
0.0
 11
-82.85305462388119
 21
23.23827586391169
 31
0.0
 11
-82.73037750303009
 21
23.34982193464909
 31
0.0
 11
-82.69622587065008
 21
23.39487948885313
 31
0.0
  0
SPLINE
  5
C79
330
1F
100
AcDbEntity
  8
0
100
AcDbSpline
210
0.0
220
0.0
230
1.0
 70
     8
 71
     3
 72
    34
 73
    30
 74
    28
 42
0.0000000001
 43
0.0000000001
 44
0.0000000001
 40
0.0
 40
0.0
 40
0.0
 40
0.0
 40
0.1209994715794785
 40
0.2001929433849487
 40
0.2807663417566009
 40
0.554052565366589
 40
0.7643229825101394
 40
1.532036493825104
 40
3.423334658890382
 40
6.606967802056537
 40
10.55675863287789
 40
15.41823712117202
 40
17.03177502653403
 40
19.45199170592812
 40
21.41787659516062
 40
22.57745565434769
 40
24.9405681494472
 40
27.54035475313354
 40
29.74898595706191
 40
32.50323817075305
 40
35.52986631491525
 40
38.37579713302981
 40
39.91278837061389
 40
40.37421435990146
 40
41.41119301427521
 40
42.70473542962284
 40
43.13520888328105
 40
43.22535132518425
 40
43.33318807398507
 40
43.33318807398507
 40
43.33318807398507
 40
43.33318807398507
 10
-82.69622587065009
 20
23.39487948885313
 30
0.0
 10
-82.67393749691382
 20
23.42862787640271
 30
0.0
 10
-82.63706150825631
 20
23.48446439328874
 30
0.0
 10
-82.61001380175242
 20
23.57651187305185
 30
0.0
 10
-82.63627804111655
 20
23.72294762973891
 30
0.0
 10
-82.78036097852671
 20
23.86384012899045
 30
0.0
 10
-83.12665599387091
 20
24.08953803987741
 30
0.0
 10
-84.02300945946137
 20
24.45337273462426
 30
0.0
 10
-85.90556727683946
 20
24.94388603013984
 30
0.0
 10
-88.87145255392901
 20
25.47265516154074
 30
0.0
 10
-92.83580604862599
 20
25.99874739009649
 30
0.0
 10
-96.30465254537561
 20
26.23473999833227
 30
0.0
 10
-99.26438431469692
 20
26.41044645858245
 30
0.0
 10
-101.2646268542837
 20
26.45987097848898
 30
0.0
 10
-103.1129824526703
 20
26.4209290444624
 30
0.0
 10
-104.9419764236886
 20
26.38022623725075
 30
0.0
 10
-106.9824237261786
 20
26.32444156658656
 30
0.0
 10
-109.3660090064375
 20
26.11516057294111
 30
0.0
 10
-111.8611911964801
 20
25.76348000290274
 30
0.0
 10
-114.4952487717257
 20
25.32548997467153
 30
0.0
 10
-117.2212059241961
 20
24.39103598530233
 30
0.0
 10
-119.510060684378
 20
23.43394196423421
 30
0.0
 10
-120.8522286366102
 20
22.52198643611977
 30
0.0
 10
-121.6353916620103
 20
21.8829059073881
 30
0.0
 10
-122.3413284770422
 20
21.2659044771526
 30
0.0
 10
-122.8929109366846
 20
20.54091942353318
 30
0.0
 10
-123.3294238709318
 20
20.09572787740324
 30
0.0
 10
-123.3933376275887
 20
19.89444744022977
 30
0.0
 10
-123.4031976810399
 20
19.82916402739409
 30
0.0
 10
-123.4085683268305
 20
19.79360498219451
 30
0.0
 11
-82.69622587065009
 21
23.39487948885313
 31
0.0
 11
-82.63578679415829
 21
23.4997031033459
 31
0.0
 11
-82.61630911405177
 21
23.5764639394166
 31
0.0
 11
-82.62816332608402
 21
23.65616055278412
 31
0.0
 11
-82.7997527966786
 21
23.8688631940373
 31
0.0
 11
-82.97399226559676
 21
23.98656729675611
 31
0.0
 11
-83.67418083344952
 21
24.3014005937624
 31
0.0
 11
-85.493696446874
 21
24.81751267624435
 31
0.0
 11
-88.62230965587405
 21
25.40683379306975
 31
0.0
 11
-92.5384671033538
 21
25.92118625373203
 31
0.0
 11
-97.38534064978628
 21
26.29773627303869
 31
0.0
 11
-98.99640310880677
 21
26.38708013222821
 31
0.0
 11
-101.4159682425464
 21
26.44323472962609
 31
0.0
 11
-103.3816471917909
 21
26.41478009539192
 31
0.0
 11
-104.5409285119946
 21
26.38850434360595
 31
0.0
 11
-106.9025301050313
 21
26.30401422428937
 31
0.0
 11
-109.4925955336834
 21
26.07940019977569
 31
0.0
 11
-111.6809318481064
 21
25.78067629724394
 31
0.0
 11
-114.3874679496678
 21
25.27021808390335
 31
0.0
 11
-117.267258967481
 21
24.33893852503966
 31
0.0
 11
-119.8555481422968
 21
23.15568818423026
 31
0.0
 11
-121.1277059793216
 21
22.29315905306621
 31
0.0
 11
-121.486159632641
 21
22.00259938275387
 31
0.0
 11
-122.2519696154594
 21
21.30341428577134
 31
0.0
 11
-123.1049674022216
 21
20.33097058247423
 31
0.0
 11
-123.3618674557898
 21
19.985558138024
 31
0.0
 11
-123.3894081164237
 21
19.89972590722391
 31
0.0
 11
-123.4085683268305
 21
19.79360498219451
 31
0.0
  0
SPLINE
  5
C7A
330
1F
100
AcDbEntity
  8
0
100
AcDbSpline
210
0.0
220
0.0
230
1.0
 70
     8
 71
     3
 72
    17
 73
    13
 74
    11
 42
0.0000000001
 43
0.0000000001
 44
0.0000000001
 40
0.0
 40
0.0
 40
0.0
 40
0.0
 40
0.1447966579277114
 40
0.4779028577548507
 40
1.049586835443672
 40
1.473256666579477
 40
2.518286083752704
 40
3.563315500925922
 40
6.617371951308992
 40
10.48182784622567
 40
13.70737110996812
 40
15.60556648591137
 40
15.60556648591137
 40
15.60556648591137
 40
15.60556648591137
 10
-123.4085681252998
 20
19.7936049821945
 30
0.0
 10
-123.3962042731076
 20
19.74592613169321
 30
0.0
 10
-123.3553972518679
 20
19.58856159555583
 30
0.0
 10
-123.0366951783214
 20
19.385689249708
 30
0.0
 10
-122.6510365262685
 20
19.19263367032073
 30
0.0
 10
-122.007769118262
 20
18.95854735366395
 30
0.0
 10
-121.2040473463133
 20
18.72632567420114
 30
0.0
 10
-119.5336779996822
 20
18.3333423300526
 30
0.0
 10
-116.9182068844693
 20
17.87159439170715
 30
0.0
 10
-113.5607589851042
 20
17.45715230164065
 30
0.0
 10
-110.5739604774167
 20
17.21729600503977
 30
0.0
 10
-108.8700973877
 20
17.09995955143144
 30
0.0
 10
-108.2388659245864
 20
17.05648982564493
 30
0.0
 11
-123.4085681252998
 21
19.7936049821945
 31
0.0
 11
-123.3619013925187
 21
19.65653460538548
 31
0.0
 11
-123.1107741799206
 21
19.437685654152
 31
0.0
 11
-122.5998707553326
 21
19.18117003846677
 31
0.0
 11
-122.2031181889028
 21
19.03256476653464
 31
0.0
 11
-121.2014443371242
 21
18.73467892024373
 31
0.0
 11
-120.1850483788359
 21
18.49172678764819
 31
0.0
 11
-117.1809341502896
 21
17.94167360479043
 31
0.0
 11
-113.3465016955067
 21
17.46089599147639
 31
0.0
 11
-110.13239115446
 21
17.18956081829279
 31
0.0
 11
-108.2388659245864
 21
17.05648982564493
 31
0.0
  0
SPLINE
  5
C7B
330
1F
100
AcDbEntity
  8
0
100
AcDbSpline
210
0.0
220
0.0
230
1.0
 70
     8
 71
     3
 72
    18
 73
    14
 74
     0
 42
0.0000000001
 43
0.0000000001
 40
0.0
 40
0.0
 40
0.0
 40
0.0
 40
0.1209994715794785
 40
0.2001929433849487
 40
0.2807663417566009
 40
0.554052565366589
 40
0.7643229825101394
 40
1.532036493825104
 40
3.423334658890382
 40
6.606967802056537
 40
10.55675863287789
 40
15.41823712117202
 40
15.83884361034361
 40
15.83884361034361
 40
15.83884361034361
 40
15.83884361034361
 10
-123.3308480804359
 20
19.9565166567581
 30
0.0
 10
-123.3531364541722
 20
19.92276826920851
 30
0.0
 10
-123.3900124428297
 20
19.86693175232249
 30
0.0
 10
-123.4170601493336
 20
19.77488427255937
 30
0.0
 10
-123.3907959099695
 20
19.62844851587231
 30
0.0
 10
-123.2467129725593
 20
19.48755601662078
 30
0.0
 10
-122.9004179572151
 20
19.26185810573382
 30
0.0
 10
-122.0040644916246
 20
18.89802341098696
 30
0.0
 10
-120.1215066742465
 20
18.40751011547139
 30
0.0
 10
-117.155621397157
 20
17.87874098407049
 30
0.0
 10
-113.19126790246
 20
17.35264875551473
 30
0.0
 10
-110.1193684067253
 20
17.14366125061479
 30
0.0
 10
-108.3618314568631
 20
17.03651759950023
 30
0.0
 10
-108.2218735441697
 20
17.02817578605223
 30
0.0
  0
SPLINE
  5
C7C
330
1F
100
AcDbEntity
  8
0
100
AcDbSpline
210
0.0
220
0.0
230
1.0
 70
     8
 71
     3
 72
    17
 73
    13
 74
    11
 42
0.0000000001
 43
0.0000000001
 44
0.0000000001
 40
0.0
 40
0.0
 40
0.0
 40
0.0
 40
0.8324980563396357
 40
1.176649696652822
 40
1.318866645457956
 40
1.520888940242142
 40
1.79101977783618
 40
3.134564324494849
 40
5.650065344435023
 40
8.234105579514171
 40
10.90606685272359
 40
12.2162048623013
 40
12.2162048623013
 40
12.2162048623013
 40
12.2162048623013
 10
-91.55700977027203
 20
18.12617870035386
 30
0.0
 10
-91.29447196574094
 20
18.21390550098288
 30
0.0
 10
-90.92340199661736
 20
18.33789823893871
 30
0.0
 10
-90.54042453241748
 20
18.58018173180006
 30
0.0
 10
-90.4300827246751
 20
18.7937201912092
 30
0.0
 10
-90.49361900076705
 20
19.01179605806853
 30
0.0
 10
-90.99313403476521
 20
19.37974072191671
 30
0.0
 10
-92.31155195360015
 20
19.81034299614861
 30
0.0
 10
-94.39726651346614
 20
20.31454057837875
 30
0.0
 10
-96.960950900582
 20
20.70399477805572
 30
0.0
 10
-99.11712415896666
 20
21.07884521537524
 30
0.0
 10
-100.432988106282
 20
21.2541931070101
 30
0.0
 10
-100.8659163811401
 20
21.31188376749241
 30
0.0
 11
-91.55700977027203
 21
18.12617870035386
 31
0.0
 11
-90.78410835414757
 21
18.43549474384673
 31
0.0
 11
-90.51346650592675
 21
18.64808200010135
 31
0.0
 11
-90.45516287280598
 21
18.77779840959669
 31
0.0
 11
-90.50141653024136
 21
18.97445447170442
 31
0.0
 11
-90.69982611830903
 21
19.15776924138235
 31
0.0
 11
-91.9394219284967
 21
19.67595277664899
 31
0.0
 11
-94.38273435225204
 21
20.27425853564086
 31
0.0
 11
-96.93003517817679
 21
20.70845024301328
 31
0.0
 11
-99.56802259770896
 21
21.13318477177325
 31
0.0
 11
-100.8659163811401
 21
21.31188376749241
 31
0.0
  0
SPLINE
  5
C7D
330
1F
100
AcDbEntity
  8
0
100
AcDbSpline
210
0.0
220
0.0
230
1.0
 70
     8
 71
     3
 72
     9
 73
     5
 74
     3
 42
0.0000000001
 43
0.0000000001
 44
0.0000000001
 40
0.0
 40
0.0
 40
0.0
 40
0.0
 40
2.296428868613206
 40
4.580503824635588
 40
4.580503824635588
 40
4.580503824635588
 40
4.580503824635588
 10
-95.96794068480539
 20
18.9315757526613
 30
0.0
 10
-95.20497211580631
 20
18.99747989054003
 30
0.0
 10
-93.68313945809047
 20
19.12893362713895
 30
0.0
 10
-92.17644536482922
 20
19.38015967958084
 30
0.0
 10
-91.4251301435001
 20
19.50543391941374
 30
0.0
 11
-95.96794068480539
 21
18.9315757526613
 31
0.0
 11
-93.68284006129149
 21
19.15939297987761
 31
0.0
 11
-91.4251301435001
 21
19.50543391941374
 31
0.0
  0
SPLINE
  5
C7E
330
1F
100
AcDbEntity
  8
0
100
AcDbSpline
210
0.0
220
0.0
230
1.0
 70
     8
 71
     3
 72
    18
 73
    14
 74
    12
 42
0.0000000001
 43
0.0000000001
 44
0.0000000001
 40
0.0
 40
0.0
 40
0.0
 40
0.0
 40
0.7694521551997921
 40
2.792365912054524
 40
10.7101331677526
 40
17.68930144917056
 40
25.4801866360867
 40
31.26009887457892
 40
35.56932130423256
 40
38.39699272228609
 40
38.73878222179343
 40
38.90458994741943
 40
38.96112769750793
 40
38.96112769750793
 40
38.96112769750793
 40
38.96112769750793
 10
-84.66945672101422
 20
23.67542378077704
 30
0.0
 10
-84.91662375005102
 20
23.60582714091835
 30
0.0
 10
-85.81360062093514
 20
23.3532587603873
 30
0.0
 10
-89.38636827891549
 20
23.04057687015474
 30
0.0
 10
-95.00074068904893
 20
22.66733059596367
 30
0.0
 10
-102.5509422905585
 20
22.14902090139607
 30
0.0
 10
-109.3879124460864
 20
21.8049018234743
 30
0.0
 10
-115.3452686879578
 20
21.42234716737226
 30
0.0
 10
-119.60692845577
 20
20.95034871602539
 30
0.0
 10
-122.1113052079647
 20
20.61866703929108
 30
0.0
 10
-123.1316605579223
 20
20.15651315041656
 30
0.0
 10
-123.2761076963931
 20
20.03175074226754
 30
0.0
 10
-123.3197506107195
 20
19.97176879647507
 30
0.0
 10
-123.3308480804359
 20
19.95651665675809
 30
0.0
 11
-84.66945672101422
 21
23.67542378077704
 31
0.0
 11
-85.41357907834354
 21
23.47962149155589
 31
0.0
 11
-87.41919125656515
 21
23.21561418438184
 31
0.0
 11
-95.31624873884588
 21
22.64331929801768
 31
0.0
 11
-102.280527842668
 21
22.18768077416664
 31
0.0
 11
-110.0591332662806
 21
21.75042837628529
 31
0.0
 11
-115.8245068474207
 21
21.34072976197947
 31
0.0
 11
-120.1085848934378
 21
20.8758929692614
 31
0.0
 11
-122.8707418799707
 21
20.27073643560712
 31
0.0
 11
-123.1740193272048
 21
20.11312028169953
 31
0.0
 11
-123.2966964480559
 21
20.00157421096213
 31
0.0
 11
-123.3308480804359
 21
19.95651665675809
 31
0.0
  0
SPLINE
  5
C7F
330
1F
100
AcDbEntity
  8
0
100
AcDbSpline
210
0.0
220
0.0
230
1.0
 70
     8
 71
     3
 72
    17
 73
    13
 74
    11
 42
0.0000000001
 43
0.0000000001
 44
0.0000000001
 40
0.0
 40
0.0
 40
0.0
 40
0.0
 40
0.8324980563396357
 40
1.176649696652822
 40
1.318866645457956
 40
1.520888940242142
 40
1.79101977783618
 40
3.134564324494849
 40
5.650065344435023
 40
8.234105579514171
 40
10.90606685272359
 40
12.2162048623013
 40
12.2162048623013
 40
12.2162048623013
 40
12.2162048623013
 10
-114.4251754478209
 20
25.21331980630205
 30
0.0
 10
-114.687713252352
 20
25.12559300567302
 30
0.0
 10
-115.0587832214756
 20
25.00160026771719
 30
0.0
 10
-115.4417606856754
 20
24.75931677485585
 30
0.0
 10
-115.5521024934178
 20
24.54577831544671
 30
0.0
 10
-115.4885662173259
 20
24.32770244858737
 30
0.0
 10
-114.9890511833277
 20
23.95975778473919
 30
0.0
 10
-113.6706332644928
 20
23.52915551050729
 30
0.0
 10
-111.5849187046268
 20
23.02495792827716
 30
0.0
 10
-109.0212343175109
 20
22.63550372860019
 30
0.0
 10
-106.8650610591263
 20
22.26065329128067
 30
0.0
 10
-105.5491971118109
 20
22.08530539964581
 30
0.0
 10
-105.1162688369528
 20
22.02761473916349
 30
0.0
 11
-114.4251754478209
 21
25.21331980630205
 31
0.0
 11
-115.1980768639454
 21
24.90400376280917
 31
0.0
 11
-115.4687187121662
 21
24.69141650655455
 31
0.0
 11
-115.527022345287
 21
24.56170009705922
 31
0.0
 11
-115.4807686878516
 21
24.36504403495148
 31
0.0
 11
-115.2823590997839
 21
24.18172926527355
 31
0.0
 11
-114.0427632895962
 21
23.66354573000691
 31
0.0
 11
-111.5994508658409
 21
23.06523997101504
 31
0.0
 11
-109.0521500399161
 21
22.63104826364262
 31
0.0
 11
-106.414162620384
 21
22.20631373488265
 31
0.0
 11
-105.1162688369528
 21
22.02761473916349
 31
0.0
  0
SPLINE
  5
C80
330
1F
100
AcDbEntity
  8
0
100
AcDbSpline
210
0.0
220
0.0
230
1.0
 70
     8
 71
     3
 72
     9
 73
     5
 74
     3
 42
0.0000000001
 43
0.0000000001
 44
0.0000000001
 40
0.0
 40
0.0
 40
0.0
 40
0.0
 40
2.175014998802312
 40
4.542407711722871
 40
4.542407711722871
 40
4.542407711722871
 40
4.542407711722871
 10
-110.1121349062598
 20
24.40202388964692
 30
0.0
 10
-110.8353394283299
 20
24.34606529508899
 30
0.0
 10
-112.3457151268942
 20
24.22919862906735
 30
0.0
 10
-113.8403242439421
 20
23.98164912300938
 30
0.0
 10
-114.6192782606042
 20
23.85263232532821
 30
0.0
 11
-110.1121349062598
 21
24.40202388964692
 31
0.0
 11
-112.2781336262391
 21
24.20418610239923
 31
0.0
 11
-114.6192782606042
 21
23.85263232532821
 31
0.0
  0
LINE
  5
C81
330
1F
100
AcDbEntity
  8
0
100
AcDbLine
 10
-108.46378680747
 20
4.224340051936041
 30
0.0
 11
-97.62161831801487
 21
4.225039714787385
 31
0.0
  0
LINE
  5
C82
330
1F
100
AcDbEntity
  8
0
100
AcDbLine
 10
-97.62161831801487
 20
4.225039714787385
 30
0.0
 11
-97.85182216011122
 21
17.811143880226
 31
0.0
  0
LINE
  5
C83
330
1F
100
AcDbEntity
  8
0
100
AcDbLine
 10
-108.4637868074674
 20
4.224340052088598
 30
0.0
 11
-108.207080292315
 21
17.811143880226
 31
0.0
  0
ARC
  5
C84
330
1F
100
AcDbEntity
  8
0
100
AcDbCircle
 10
-103.0294512262131
 20
-3.0243554565516
 30
0.0
 40
21.46918431983393
100
AcDbArc
 50
76.04465382105883
 51
103.9553461789411
  0
LINE
  5
C86
330
1F
100
AcDbEntity
  8
0
100
AcDbLine
 10
-155.8023815592731
 20
42.60785665435941
 30
0.0
 11
-159.9529865995626
 21
59.00731372438373
 31
0.0
  0
LINE
  5
C87
330
1F
100
AcDbEntity
  8
0
100
AcDbLine
 10
-165.0174363311333
 20
43.48112140090075
 30
0.0
 11
-161.0578533854054
 21
59.00725789556319
 31
0.0
  0
ARC
  5
C89
330
1F
100
AcDbEntity
  8
0
100
AcDbCircle
 10
-160.8739005821761
 20
58.94645500540329
 30
0.0
 40
0.1937411295201135
100
AcDbArc
 50
85.45430704702376
 51
161.7094573967217
  0
LINE
  5
C8A
330
1F
100
AcDbEntity
  8
0
100
AcDbLine
 10
-160.8585458023998
 20
59.13958671177425
 30
0.0
 11
-160.1208978699516
 21
59.13958671177425
 31
0.0
  0
ARC
  5
C8B
330
1F
100
AcDbEntity
  8
0
100
AcDbCircle
 10
-160.1369394027919
 20
58.94651083422385
 30
0.0
 40
0.1937411295201135
100
AcDbArc
 50
18.29054260327832
 51
85.25054092586401
  0
SPLINE
  5
C8C
330
1F
100
AcDbEntity
  8
0
100
AcDbSpline
210
0.0
220
0.0
230
1.0
 70
     8
 71
     3
 72
    20
 73
    16
 74
    14
 42
0.0000000001
 43
0.0000000001
 44
0.0000000001
 40
0.0
 40
0.0
 40
0.0
 40
0.0
 40
0.060688125142629
 40
0.1353391153428736
 40
0.2531707434355733
 40
0.546351360754632
 40
1.884446754450307
 40
7.148083424065602
 40
11.60713904294884
 40
13.03505654594166
 40
15.30479166801151
 40
16.35412901317659
 40
17.3271129496126
 40
17.66633197079134
 40
17.76515673573146
 40
17.76515673573146
 40
17.76515673573146
 40
17.76515673573146
 10
-160.9371566515954
 20
59.12957872027754
 30
0.0
 10
-160.9170602241568
 20
59.12825431826203
 30
0.0
 10
-160.8722436689461
 20
59.12530080146255
 30
0.0
 10
-160.7872530561287
 20
59.10308186025948
 30
0.0
 10
-160.6892599424132
 20
58.96386143812258
 30
0.0
 10
-160.4234225682312
 20
58.45397186616286
 30
0.0
 10
-159.8258533191698
 20
56.20090437222671
 30
0.0
 10
-159.0785616454612
 20
52.61734988457008
 30
0.0
 10
-158.1264580616172
 20
49.01335719415751
 30
0.0
 10
-157.2842591143994
 20
46.42858796753967
 30
0.0
 10
-156.8167053131505
 20
44.91689096027859
 30
0.0
 10
-156.3349711331358
 20
43.5685890812589
 30
0.0
 10
-156.060736230964
 20
42.83285946125714
 30
0.0
 10
-155.8764495881968
 20
42.39682684531715
 30
0.0
 10
-155.7933595781395
 20
42.27657128869598
 30
0.0
 10
-155.7746140760391
 20
42.2494410622382
 30
0.0
 11
-160.9371566515954
 21
59.12957872027754
 31
0.0
 11
-160.8767432199323
 21
59.12381106841469
 31
0.0
 11
-160.8056266371004
 21
59.10111300717163
 31
0.0
 11
-160.726322258827
 21
59.0139630894112
 31
0.0
 11
-160.5856751328484
 21
58.75672145140225
 31
0.0
 11
-160.1712545100282
 21
57.48441848826378
 31
0.0
 11
-158.9734122256556
 21
52.35888974953956
 31
0.0
 11
-157.8072980017934
 21
48.05501305181686
 31
0.0
 11
-157.373802099396
 21
46.69448752910225
 31
0.0
 11
-156.6751701207399
 21
44.53494802199513
 31
0.0
 11
-156.3242850125411
 21
43.54601500869118
 31
0.0
 11
-155.9766939478189
 21
42.63723660209922
 31
0.0
 11
-155.8295333803524
 21
42.33160068844965
 31
0.0
 11
-155.7746140760391
 21
42.2494410622382
 31
0.0
  0
SPLINE
  5
C8D
330
1F
100
AcDbEntity
  8
0
100
AcDbSpline
210
0.0
220
0.0
230
1.0
 70
     8
 71
     3
 72
    13
 73
     9
 74
     7
 42
0.0000000001
 43
0.0000000001
 44
0.0000000001
 40
0.0
 40
0.0
 40
0.0
 40
0.0
 40
0.0149793140110395
 40
0.0314786696623828
 40
0.0641257923101595
 40
0.1708142378883433
 40
0.2530504400554858
 40
0.4060363052777293
 40
0.4060363052777293
 40
0.4060363052777293
 40
0.4060363052777293
 10
-155.7746140760391
 20
42.24944106223822
 30
0.0
 10
-155.7703940061527
 20
42.24655793845959
 30
0.0
 10
-155.7615256303506
 20
42.24049912288523
 30
0.0
 10
-155.7374931962731
 20
42.24438130618949
 30
0.0
 10
-155.7195587324912
 20
42.30168107176925
 30
0.0
 10
-155.7457750213795
 20
42.37111523746893
 30
0.0
 10
-155.7704584752881
 20
42.4824667669624
 30
0.0
 10
-155.7898012377141
 20
42.55844272228311
 30
0.0
 10
-155.8023815592731
 20
42.60785665435941
 30
0.0
 11
-155.7746140760391
 21
42.24944106223822
 31
0.0
 11
-155.761290651508
 21
42.24259517244902
 31
0.0
 11
-155.744983320428
 21
42.24510509076567
 31
0.0
 11
-155.7298652910259
 21
42.27404087836816
 31
0.0
 11
-155.7458891260409
 21
42.37951912793318
 31
0.0
 11
-155.7656394973039
 21
42.45934841943603
 31
0.0
 11
-155.8023815592731
 21
42.60785665435941
 31
0.0
  0
SPLINE
  5
C8E
330
1F
100
AcDbEntity
  8
0
100
AcDbSpline
210
0.0
220
0.0
230
1.0
 70
     8
 71
     3
 72
    17
 73
    13
 74
    11
 42
0.0000000001
 43
0.0000000001
 44
0.0000000001
 12
0.9914061398453844
 22
0.1308199750683136
 32
0.0
 13
-0.7211350890809566
 23
0.6927944740658667
 33
0.0
 40
0.0
 40
0.0
 40
0.0
 40
0.0
 40
0.0682971150018772
 40
0.6910882564840988
 40
2.42409332959468
 40
3.388020846429521
 40
4.02042185774681
 40
4.829239149418675
 40
5.306910756570576
 40
6.20226734466296
 40
7.07229381093872
 40
7.380295887241948
 40
7.380295887241948
 40
7.380295887241948
 40
7.380295887241948
 10
-155.7425428894562
 20
42.24652923279565
 30
0.0
 10
-155.7199728297407
 20
42.24950744175624
 30
0.0
 10
-156.078218392997
 20
41.96684729712005
 30
0.0
 10
-156.3114049769556
 20
41.64204767693408
 30
0.0
 10
-157.5009999363912
 20
40.88816275947805
 30
0.0
 10
-158.4980881673356
 20
40.53111070792875
 30
0.0
 10
-159.2806948985105
 20
40.31410207223598
 30
0.0
 10
-159.918055395617
 20
40.27153002380853
 30
0.0
 10
-160.645635228814
 20
40.19116628893322
 30
0.0
 10
-161.3762709059148
 20
40.30619358435183
 30
0.0
 10
-162.1143733088278
 20
40.30223687182391
 30
0.0
 10
-162.4211060428376
 20
40.56488989288182
 30
0.0
 10
-162.4951430777483
 20
40.63601727170306
 30
0.0
 11
-155.7425428894562
 21
42.24652923279565
 31
0.0
 11
-155.7879308700858
 21
42.19549564452331
 31
0.0
 11
-156.2477684396491
 21
41.77547395993211
 31
0.0
 11
-157.7110505934522
 21
40.84697413667503
 31
0.0
 11
-158.6124525079546
 21
40.50546155089993
 31
0.0
 11
-159.2251675395863
 21
40.348900607087
 31
0.0
 11
-160.0287165062711
 21
40.25673516102767
 31
0.0
 11
-160.5050640377905
 21
40.22119372753936
 31
0.0
 11
-161.3982613241285
 21
40.2833389407016
 31
0.0
 11
-162.2530126578269
 21
40.44565409575832
 31
0.0
 11
-162.4951430777483
 21
40.63601727170306
 31
0.0
  0
ARC
  5
C8F
330
1F
100
AcDbEntity
  8
0
100
AcDbCircle
 10
-157.2798134478001
 20
47.80021239259311
 30
0.0
 40
8.861453316426183
100
AcDbArc
 50
209.1699719637618
 51
233.9464503802102
  0
LINE
  5
C90
330
1F
100
AcDbEntity
  8
0
100
AcDbLine
 10
-165.0174327484294
 20
43.48113611188646
 30
0.0
 11
-177.9550140437139
 21
41.38136871546727
 31
0.0
  0
LINE
  5
C91
330
1F
100
AcDbEntity
  8
0
100
AcDbLine
 10
-177.9550141924928
 20
45.17921381895161
 30
0.0
 11
-177.9550140444513
 21
40.18967084595185
 31
0.0
  0
LINE
  5
C92
330
1F
100
AcDbEntity
  8
0
100
AcDbLine
 10
-177.9550140444513
 20
40.18967084595185
 30
0.0
 11
-162.2530126578269
 21
40.44565409575832
 31
0.0
  0
LINE
  5
C93
330
1F
100
AcDbEntity
  8
0
100
AcDbLine
 10
-177.955014192493
 20
45.17921381895153
 30
0.0
 11
-164.7701412429137
 21
44.45080364945646
 31
0.0
  0
LWPOLYLINE
  5
C95
330
1F
100
AcDbEntity
  8
0
100
AcDbPolyline
 90
        4
 70
     0
 43
0.0
 10
-96.28054426584355
 20
20.60379794243939
 10
-96.28054426584355
 20
20.17980240030237
 10
-109.8805442658435
 20
20.17980240030237
 10
-109.8805442658435
 20
20.76429480268821
  0
LWPOLYLINE
  5
C98
330
1F
100
AcDbEntity
  8
0
100
AcDbPolyline
 90
        4
 70
     0
 43
0.0
 10
-95.96794068480539
 20
20.55331882566615
 10
-95.96794068480539
 20
18.9315757526613
 10
-110.1121349062598
 20
18.9315757526613
 10
-110.1121349062598
 20
20.74860687470444
  0
SPLINE
  5
C99
330
1F
100
AcDbEntity
  8
0
100
AcDbSpline
210
0.0
220
0.0
230
1.0
 70
     8
 71
     3
 72
    19
 73
    15
 74
     0
 42
0.0000000001
 43
0.0000000001
 40
26.22774665280451
 40
26.22774665280451
 40
26.22774665280451
 40
26.22774665280451
 40
27.54035475313354
 40
29.74898595706191
 40
32.50323817075305
 40
35.52986631491525
 40
38.37579713302981
 40
39.91278837061389
 40
40.37421435990146
 40
41.41119301427521
 40
42.70473542962284
 40
43.13520888328105
 40
43.22535132518425
 40
43.33318807398507
 40
43.33318807398507
 40
43.33318807398507
 40
43.33318807398507
 10
-97.84043684722727
 20
17.13920875790229
 30
0.0
 10
-97.40443324985832
 20
17.17700869051099
 30
0.0
 10
-96.23638095500801
 20
17.29609216677333
 30
0.0
 10
-94.16588275460595
 20
17.58791614270849
 30
0.0
 10
-91.53182517936029
 20
18.02590617093969
 30
0.0
 10
-88.8058680268899
 20
18.96036016030889
 30
0.0
 10
-86.51701326670803
 20
19.91745418137701
 30
0.0
 10
-85.1748453144758
 20
20.82940970949146
 30
0.0
 10
-84.39168228907574
 20
21.46849023822313
 30
0.0
 10
-83.68574547404378
 20
22.08549166845862
 30
0.0
 10
-83.13416301440145
 20
22.81047672207805
 30
0.0
 10
-82.69765008015424
 20
23.25566826820798
 30
0.0
 10
-82.63373632349727
 20
23.45694870538145
 30
0.0
 10
-82.62387627004612
 20
23.52223211821713
 30
0.0
 10
-82.61850562425554
 20
23.55779116341672
 30
0.0
  0
LINE
  5
C9C
330
1F
100
AcDbEntity
  8
0
100
AcDbLine
 10
-104.5491401264227
 20
22.0568348158041
 30
0.0
 11
-104.5491401264227
 21
21.11479808284395
 31
0.0
  0
LINE
  5
C9D
330
1F
100
AcDbEntity
  8
0
100
AcDbLine
 10
-101.5497543680646
 20
22.23216082432665
 30
0.0
 11
-101.5497543680646
 21
21.2905464906739
 31
0.0
  0
ARC
  5
C9E
330
1F
100
AcDbEntity
  8
0
100
AcDbCircle
 10
-106.2295084378745
 20
73.51782150025006
 30
0.0
 40
31.20032009793789
100
AcDbArc
 50
265.9086467312135
 51
285.9283494815153
  0
ARC
  5
C9F
330
1F
100
AcDbEntity
  8
0
100
AcDbCircle
 10
-103.0625044163245
 20
66.88019609626874
 30
0.0
 40
22.22341172222746
100
AcDbArc
 50
258.916237570563
 51
281.1227157802579
  0
ENDSEC
  0
SECTION
  2
OBJECTS
  0
DICTIONARY
  5
C
330
0
100
AcDbDictionary
281
     1
  3
ACAD_COLOR
350
C5B
  3
ACAD_GROUP
350
D
  3
ACAD_LAYOUT
350
1A
  3
ACAD_MATERIAL
350
C5A
  3
ACAD_MLINESTYLE
350
17
  3
ACAD_PLOTSETTINGS
350
19
  3
ACAD_PLOTSTYLENAME
350
E
  3
ACAD_TABLESTYLE
350
C5C
  3
AcDbVariableDictionary
350
C64
  0
DICTIONARY
  5
C96
330
1F
100
AcDbDictionary
280
     1
281
     1
  3
ACAD_SORTENTS
360
C97
  0
DICTIONARY
  5
C5B
102
{ACAD_REACTORS
330
C
102
}
330
C
100
AcDbDictionary
281
     1
  0
DICTIONARY
  5
D
102
{ACAD_REACTORS
330
C
102
}
330
C
100
AcDbDictionary
281
     1
  0
DICTIONARY
  5
1A
102
{ACAD_REACTORS
330
C
102
}
330
C
100
AcDbDictionary
281
     1
  3
Layout1
350
1E
  3
Layout2
350
26
  3
Model
350
22
  0
DICTIONARY
  5
C5A
102
{ACAD_REACTORS
330
C
102
}
330
C
100
AcDbDictionary
281
     1
  0
DICTIONARY
  5
17
102
{ACAD_REACTORS
330
C
102
}
330
C
100
AcDbDictionary
281
     1
  3
Standard
350
18
  0
DICTIONARY
  5
19
102
{ACAD_REACTORS
330
C
102
}
330
C
100
AcDbDictionary
281
     1
  0
ACDBDICTIONARYWDFLT
  5
E
102
{ACAD_REACTORS
330
C
102
}
330
C
100
AcDbDictionary
281
     1
  3
Normal
350
F
100
AcDbDictionaryWithDefault
340
F
  0
DICTIONARY
  5
C5C
102
{ACAD_REACTORS
330
C
102
}
330
C
100
AcDbDictionary
281
     1
  3
Standard
350
C5D
  0
DICTIONARY
  5
C64
102
{ACAD_REACTORS
330
C
102
}
330
C
100
AcDbDictionary
281
     1
  3
CTABLESTYLE
350
C65
  0
SORTENTSTABLE
  5
C97
102
{ACAD_REACTORS
330
C96
102
}
330
C96
100
AcDbSortentsTable
330
1F
331
C78
  5
C7A
331
C89
  5
C8C
331
C67
  5
C67
331
C87
  5
C8B
331
C98
  5
C77
331
C76
  5
C76
331
C83
  5
C87
331
C61
  5
C61
331
C92
  5
C98
331
C81
  5
C84
331
C90
  5
C93
331
C7F
  5
C82
331
C6E
  5
C6E
331
C7D
  5
C80
331
C8E
  5
C91
331
C9D
  5
C9D
331
C7B
  5
C7D
331
C8C
  5
C8F
331
C79
  5
C7B
331
C8A
  5
C8D
331
C68
  5
C68
331
C99
  5
C7E
331
C77
  5
C78
331
C66
  5
C66
331
C86
  5
C8A
331
C95
  5
C79
331
C84
  5
C89
331
C62
  5
C62
331
C93
  5
C99
331
C82
  5
C86
331
C91
  5
C95
331
C80
  5
C83
331
C6F
  5
C6F
331
C7E
  5
C81
331
C8F
  5
C92
331
C7C
  5
C7F
331
C8D
  5
C90
331
C9C
  5
C9B
331
C7A
  5
C7C
331
C8B
  5
C8E
  0
LAYOUT
  5
1E
102
{ACAD_REACTORS
330
1A
102
}
330
1A
100
AcDbPlotSettings
  1

  2
none_device
  4

  6

 40
0.0
 41
0.0
 42
0.0
 43
0.0
 44
0.0
 45
0.0
 46
0.0
 47
0.0
 48
0.0
 49
0.0
140
0.0
141
0.0
142
1.0
143
1.0
 70
   688
 72
     0
 73
     0
 74
     5
  7

 75
    16
147
1.0
 76
     0
 77
     2
 78
   300
148
0.0
149
0.0
100
AcDbLayout
  1
Layout1
 70
     1
 71
     1
 10
0.0
 20
0.0
 11
12.0
 21
9.0
 12
0.0
 22
0.0
 32
0.0
 14
1.000000000000000E+20
 24
1.000000000000000E+20
 34
1.000000000000000E+20
 15
-1.000000000000000E+20
 25
-1.000000000000000E+20
 35
-1.000000000000000E+20
146
0.0
 13
0.0
 23
0.0
 33
0.0
 16
1.0
 26
0.0
 36
0.0
 17
0.0
 27
1.0
 37
0.0
 76
     0
330
1B
  0
LAYOUT
  5
26
102
{ACAD_REACTORS
330
1A
102
}
330
1A
100
AcDbPlotSettings
  1

  2
none_device
  4

  6

 40
0.0
 41
0.0
 42
0.0
 43
0.0
 44
0.0
 45
0.0
 46
0.0
 47
0.0
 48
0.0
 49
0.0
140
0.0
141
0.0
142
1.0
143
1.0
 70
   688
 72
     0
 73
     0
 74
     5
  7

 75
    16
147
1.0
 76
     0
 77
     2
 78
   300
148
0.0
149
0.0
100
AcDbLayout
  1
Layout2
 70
     1
 71
     2
 10
0.0
 20
0.0
 11
0.0
 21
0.0
 12
0.0
 22
0.0
 32
0.0
 14
0.0
 24
0.0
 34
0.0
 15
0.0
 25
0.0
 35
0.0
146
0.0
 13
0.0
 23
0.0
 33
0.0
 16
1.0
 26
0.0
 36
0.0
 17
0.0
 27
1.0
 37
0.0
 76
     0
330
23
  0
LAYOUT
  5
22
102
{ACAD_REACTORS
330
1A
102
}
330
1A
100
AcDbPlotSettings
  1

  2
none_device
  4

  6

 40
0.0
 41
0.0
 42
0.0
 43
0.0
 44
0.0
 45
0.0
 46
0.0
 47
0.0
 48
0.0
 49
0.0
140
0.0
141
0.0
142
1.0
143
1.0
 70
  1712
 72
     0
 73
     0
 74
     0
  7

 75
     0
147
1.0
 76
     0
 77
     2
 78
   300
148
0.0
149
0.0
100
AcDbLayout
  1
Model
 70
     1
 71
     0
 10
0.0
 20
0.0
 11
12.0
 21
9.0
 12
0.0
 22
0.0
 32
0.0
 14
-177.9561837260003
 24
4.22314277963761
 34
0.0
 15
-82.615881500504
 25
59.15287407661551
 35
0.0
146
0.0
 13
0.0
 23
0.0
 33
0.0
 16
1.0
 26
0.0
 36
0.0
 17
0.0
 27
1.0
 37
0.0
 76
     0
330
1F
  0
MLINESTYLE
  5
18
102
{ACAD_REACTORS
330
17
102
}
330
17
100
AcDbMlineStyle
  2
STANDARD
 70
     0
  3

 62
   256
 51
90.0
 52
90.0
 71
     2
 49
0.5
 62
   256
  6
BYLAYER
 49
-0.5
 62
   256
  6
BYLAYER
  0
ACDBPLACEHOLDER
  5
F
102
{ACAD_REACTORS
330
E
102
}
330
E
  0
TABLESTYLE
  5
C5D
102
{ACAD_REACTORS
330
C5C
102
}
330
C5C
100
AcDbTableStyle
  3
Standard
 70
     0
 71
     0
 40
0.06
 41
0.06
280
     0
281
     0
  7
Standard
140
0.18
170
     2
 62
     0
 63
     7
283
     0
274
    -2
284
     1
 64
     0
275
    -2
285
     1
 65
     0
276
    -2
286
     1
 66
     0
277
    -2
287
     1
 67
     0
278
    -2
288
     1
 68
     0
279
    -2
289
     1
 69
     0
  7
Standard
140
0.25
170
     5
 62
     0
 63
     7
283
     0
274
    -2
284
     1
 64
     0
275
    -2
285
     1
 65
     0
276
    -2
286
     1
 66
     0
277
    -2
287
     1
 67
     0
278
    -2
288
     1
 68
     0
279
    -2
289
     1
 69
     0
  7
Standard
140
0.18
170
     5
 62
     0
 63
     7
283
     0
274
    -2
284
     1
 64
     0
275
    -2
285
     1
 65
     0
276
    -2
286
     1
 66
     0
277
    -2
287
     1
 67
     0
278
    -2
288
     1
 68
     0
279
    -2
289
     1
 69
     0
  0
DICTIONARYVAR
  5
C65
102
{ACAD_REACTORS
330
C64
102
}
330
C64
100
DictionaryVariables
280
     0
  1
STANDARD
  0
ENDSEC
  0
EOF
