  0
SECTION
  2
HEADER
  9
$ACADVER
  1
AC1018
  9
$ACADMAINTVER
 70
     0
  9
$DWGCODEPAGE
  3
ASCII
  9
$INSBASE
 10
0.0
 20
0.0
 30
0.0
  9
$EXTMIN
 10
1.000000000000000E+20
 20
1.000000000000000E+20
 30
1.000000000000000E+20
  9
$EXTMAX
 10
-1.000000000000000E+20
 20
-1.000000000000000E+20
 30
-1.000000000000000E+20
  9
$LIMMIN
 10
0.0
 20
0.0
  9
$LIMMAX
 10
12.0
 20
9.0
  9
$ORTHOMODE
 70
     0
  9
$REGENMODE
 70
     1
  9
$FILLMODE
 70
     1
  9
$QTEXTMODE
 70
     0
  9
$MIRRTEXT
 70
     1
  9
$LTSCALE
 40
1.0
  9
$ATTMODE
 70
     1
  9
$TEXTSIZE
 40
0.2
  9
$TRACEWID
 40
0.05
  9
$TEXTSTYLE
  7
Standard
  9
$CLAYER
  8
0
  9
$CELTYPE
  6
ByLayer
  9
$CECOLOR
 62
   256
  9
$CELTSCALE
 40
1.0
  9
$DISPSILH
 70
     0
  9
$DIMSCALE
 40
1.0
  9
$DIMASZ
 40
0.18
  9
$DIMEXO
 40
0.0625
  9
$DIMDLI
 40
0.38
  9
$DIMRND
 40
0.0
  9
$DIMDLE
 40
0.0
  9
$DIMEXE
 40
0.18
  9
$DIMTP
 40
0.0
  9
$DIMTM
 40
0.0
  9
$DIMTXT
 40
0.18
  9
$DIMCEN
 40
0.09
  9
$DIMTSZ
 40
0.0
  9
$DIMTOL
 70
     0
  9
$DIMLIM
 70
     0
  9
$DIMTIH
 70
     1
  9
$DIMTOH
 70
     1
  9
$DIMSE1
 70
     0
  9
$DIMSE2
 70
     0
  9
$DIMTAD
 70
     0
  9
$DIMZIN
 70
     0
  9
$DIMBLK
  1

  9
$DIMASO
 70
     1
  9
$DIMSHO
 70
     1
  9
$DIMPOST
  1

  9
$DIMAPOST
  1

  9
$DIMALT
 70
     0
  9
$DIMALTD
 70
     2
  9
$DIMALTF
 40
25.4
  9
$DIMLFAC
 40
1.0
  9
$DIMTOFL
 70
     0
  9
$DIMTVP
 40
0.0
  9
$DIMTIX
 70
     0
  9
$DIMSOXD
 70
     0
  9
$DIMSAH
 70
     0
  9
$DIMBLK1
  1

  9
$DIMBLK2
  1

  9
$DIMSTYLE
  2
Standard
  9
$DIMCLRD
 70
     0
  9
$DIMCLRE
 70
     0
  9
$DIMCLRT
 70
     0
  9
$DIMTFAC
 40
1.0
  9
$DIMGAP
 40
0.09
  9
$DIMJUST
 70
     0
  9
$DIMSD1
 70
     0
  9
$DIMSD2
 70
     0
  9
$DIMTOLJ
 70
     1
  9
$DIMTZIN
 70
     0
  9
$DIMALTZ
 70
     0
  9
$DIMALTTZ
 70
     0
  9
$DIMUPT
 70
     0
  9
$DIMDEC
 70
     4
  9
$DIMTDEC
 70
     4
  9
$DIMALTU
 70
     2
  9
$DIMALTTD
 70
     2
  9
$DIMTXSTY
  7
Standard
  9
$DIMAUNIT
 70
     0
  9
$DIMADEC
 70
     0
  9
$DIMALTRND
 40
0.0
  9
$DIMAZIN
 70
     0
  9
$DIMDSEP
 70
    46
  9
$DIMATFIT
 70
     3
  9
$DIMFRAC
 70
     0
  9
$DIMLDRBLK
  1

  9
$DIMLUNIT
 70
     2
  9
$DIMLWD
 70
    -2
  9
$DIMLWE
 70
    -2
  9
$DIMTMOVE
 70
     0
  9
$LUNITS
 70
     2
  9
$LUPREC
 70
     4
  9
$SKETCHINC
 40
0.1
  9
$FILLETRAD
 40
0.5
  9
$AUNITS
 70
     0
  9
$AUPREC
 70
     0
  9
$MENU
  1
.
  9
$ELEVATION
 40
0.0
  9
$PELEVATION
 40
0.0
  9
$THICKNESS
 40
0.0
  9
$LIMCHECK
 70
     0
  9
$CHAMFERA
 40
0.5
  9
$CHAMFERB
 40
0.5
  9
$CHAMFERC
 40
1.0
  9
$CHAMFERD
 40
0.0
  9
$SKPOLY
 70
     0
  9
$TDCREATE
 40
2455964.477534803
  9
$TDUCREATE
 40
2455964.435868137
  9
$TDUPDATE
 40
2455964.477534815
  9
$TDUUPDATE
 40
2455964.435868148
  9
$TDINDWG
 40
0.0000000116
  9
$TDUSRTIMER
 40
0.0000000116
  9
$USRTIMER
 70
     1
  9
$ANGBASE
 50
0.0
  9
$ANGDIR
 70
     0
  9
$PDMODE
 70
     0
  9
$PDSIZE
 40
0.0
  9
$PLINEWID
 40
0.0
  9
$SPLFRAME
 70
     0
  9
$SPLINETYPE
 70
     6
  9
$SPLINESEGS
 70
     8
  9
$HANDSEED
  5
15A
  9
$SURFTAB1
 70
     6
  9
$SURFTAB2
 70
     6
  9
$SURFTYPE
 70
     6
  9
$SURFU
 70
     6
  9
$SURFV
 70
     6
  9
$UCSBASE
  2

  9
$UCSNAME
  2

  9
$UCSORG
 10
0.0
 20
0.0
 30
0.0
  9
$UCSXDIR
 10
1.0
 20
0.0
 30
0.0
  9
$UCSYDIR
 10
0.0
 20
1.0
 30
0.0
  9
$UCSORTHOREF
  2

  9
$UCSORTHOVIEW
 70
     0
  9
$UCSORGTOP
 10
0.0
 20
0.0
 30
0.0
  9
$UCSORGBOTTOM
 10
0.0
 20
0.0
 30
0.0
  9
$UCSORGLEFT
 10
0.0
 20
0.0
 30
0.0
  9
$UCSORGRIGHT
 10
0.0
 20
0.0
 30
0.0
  9
$UCSORGFRONT
 10
0.0
 20
0.0
 30
0.0
  9
$UCSORGBACK
 10
0.0
 20
0.0
 30
0.0
  9
$PUCSBASE
  2

  9
$PUCSNAME
  2

  9
$PUCSORG
 10
0.0
 20
0.0
 30
0.0
  9
$PUCSXDIR
 10
1.0
 20
0.0
 30
0.0
  9
$PUCSYDIR
 10
0.0
 20
1.0
 30
0.0
  9
$PUCSORTHOREF
  2

  9
$PUCSORTHOVIEW
 70
     0
  9
$PUCSORGTOP
 10
0.0
 20
0.0
 30
0.0
  9
$PUCSORGBOTTOM
 10
0.0
 20
0.0
 30
0.0
  9
$PUCSORGLEFT
 10
0.0
 20
0.0
 30
0.0
  9
$PUCSORGRIGHT
 10
0.0
 20
0.0
 30
0.0
  9
$PUCSORGFRONT
 10
0.0
 20
0.0
 30
0.0
  9
$PUCSORGBACK
 10
0.0
 20
0.0
 30
0.0
  9
$USERI1
 70
     0
  9
$USERI2
 70
     0
  9
$USERI3
 70
     0
  9
$USERI4
 70
     0
  9
$USERI5
 70
     0
  9
$USERR1
 40
0.0
  9
$USERR2
 40
0.0
  9
$USERR3
 40
0.0
  9
$USERR4
 40
0.0
  9
$USERR5
 40
0.0
  9
$WORLDVIEW
 70
     1
  9
$SHADEDGE
 70
     3
  9
$SHADEDIF
 70
    70
  9
$TILEMODE
 70
     1
  9
$MAXACTVP
 70
    64
  9
$PINSBASE
 10
0.0
 20
0.0
 30
0.0
  9
$PLIMCHECK
 70
     0
  9
$PEXTMIN
 10
1.000000000000000E+20
 20
1.000000000000000E+20
 30
1.000000000000000E+20
  9
$PEXTMAX
 10
-1.000000000000000E+20
 20
-1.000000000000000E+20
 30
-1.000000000000000E+20
  9
$PLIMMIN
 10
0.0
 20
0.0
  9
$PLIMMAX
 10
12.0
 20
9.0
  9
$UNITMODE
 70
     0
  9
$VISRETAIN
 70
     1
  9
$PLINEGEN
 70
     0
  9
$PSLTSCALE
 70
     1
  9
$TREEDEPTH
 70
  3020
  9
$CMLSTYLE
  2
Standard
  9
$CMLJUST
 70
     0
  9
$CMLSCALE
 40
1.0
  9
$PROXYGRAPHICS
 70
     1
  9
$MEASUREMENT
 70
     0
  9
$CELWEIGHT
370
    -1
  9
$ENDCAPS
280
     0
  9
$JOINSTYLE
280
     0
  9
$LWDISPLAY
290
     1
  9
$INSUNITS
 70
     1
  9
$HYPERLINKBASE
  1

  9
$STYLESHEET
  1

  9
$XEDIT
290
     1
  9
$CEPSNTYPE
380
     0
  9
$PSTYLEMODE
290
     1
  9
$FINGERPRINTGUID
  2
{71A0716E-64BC-44F0-8C7C-A7E23F66101D}
  9
$VERSIONGUID
  2
{FAEB1C32-E019-11D5-929B-00C0DF256EC4}
  9
$EXTNAMES
290
     1
  9
$PSVPSCALE
 40
0.0
  9
$OLESTARTUP
290
     0
  9
$SORTENTS
280
   127
  9
$INDEXCTL
280
     0
  9
$HIDETEXT
280
     1
  9
$XCLIPFRAME
290
     0
  9
$HALOGAP
280
     0
  9
$OBSCOLOR
 70
   257
  9
$OBSLTYPE
280
     0
  9
$INTERSECTIONDISPLAY
280
     0
  9
$INTERSECTIONCOLOR
 70
   257
  9
$DIMASSOC
280
     2
  9
$PROJECTNAME
  1

  0
ENDSEC
  0
SECTION
  2
CLASSES
  0
CLASS
  1
ACDBDICTIONARYWDFLT
  2
AcDbDictionaryWithDefault
  3
ObjectDBX Classes
 90
        0
 91
        3
280
     0
281
     0
  0
CLASS
  1
VISUALSTYLE
  2
AcDbVisualStyle
  3
ObjectDBX Classes
 90
     4095
 91
        3
280
     0
281
     0
  0
ENDSEC
  0
SECTION
  2
TABLES
  0
TABLE
  2
VPORT
  5
8
330
0
100
AcDbSymbolTable
 70
     1
  0
VPORT
  5
29
330
8
100
AcDbSymbolTableRecord
100
AcDbViewportTableRecord
  2
*Active
 70
     0
 10
0.0
 20
0.0
 11
1.0
 21
1.0
 12
0.0
 22
0.0
 13
0.0
 23
0.0
 14
0.5
 24
0.5
 15
0.5
 25
0.5
 16
0.0
 26
0.0
 36
1.0
 17
105.0008952513716
 27
148.5000775824991
 37
0.0
 40
297.0001551649982
 41
0.7070763662937379
 42
50.0
 43
0.0
 44
0.0
 50
0.0
 51
0.0
 71
     0
 72
   100
 73
     1
 74
     3
 75
     0
 76
     0
 77
     0
 78
     0
281
     0
 65
     1
110
0.0
120
0.0
130
0.0
111
1.0
121
0.0
131
0.0
112
0.0
122
1.0
132
0.0
 79
     0
146
0.0
  0
ENDTAB
  0
TABLE
  2
LTYPE
  5
5
330
0
100
AcDbSymbolTable
 70
     1
  0
LTYPE
  5
14
330
5
100
AcDbSymbolTableRecord
100
AcDbLinetypeTableRecord
  2
ByBlock
 70
     0
  3

 72
    65
 73
     0
 40
0.0
  0
LTYPE
  5
15
330
5
100
AcDbSymbolTableRecord
100
AcDbLinetypeTableRecord
  2
ByLayer
 70
     0
  3

 72
    65
 73
     0
 40
0.0
  0
LTYPE
  5
16
330
5
100
AcDbSymbolTableRecord
100
AcDbLinetypeTableRecord
  2
Continuous
 70
     0
  3
Solid line
 72
    65
 73
     0
 40
0.0
  0
ENDTAB
  0
TABLE
  2
LAYER
  5
2
330
0
100
AcDbSymbolTable
 70
     2
  0
LAYER
  5
10
330
2
100
AcDbSymbolTableRecord
100
AcDbLayerTableRecord
  2
0
 70
     0
 62
     7
  6
Continuous
370
    -3
390
F
  0
LAYER
  5
3B
330
2
100
AcDbSymbolTableRecord
100
AcDbLayerTableRecord
  2
Livello 1
 70
     0
 62
     7
  6
Continuous
370
    -3
390
F
  0
ENDTAB
  0
TABLE
  2
STYLE
  5
3
330
0
100
AcDbSymbolTable
 70
     1
  0
STYLE
  5
11
330
3
100
AcDbSymbolTableRecord
100
AcDbTextStyleTableRecord
  2
Standard
 70
     0
 40
0.0
 41
1.0
 50
0.0
 71
     0
 42
0.2
  3
txt
  4

  0
ENDTAB
  0
TABLE
  2
VIEW
  5
6
330
0
100
AcDbSymbolTable
 70
     0
  0
ENDTAB
  0
TABLE
  2
UCS
  5
7
330
0
100
AcDbSymbolTable
 70
     0
  0
ENDTAB
  0
TABLE
  2
APPID
  5
9
330
0
100
AcDbSymbolTable
 70
     1
  0
APPID
  5
12
330
9
100
AcDbSymbolTableRecord
100
AcDbRegAppTableRecord
  2
ACAD
 70
     0
  0
ENDTAB
  0
TABLE
  2
DIMSTYLE
  5
A
330
0
100
AcDbSymbolTable
 70
     1
100
AcDbDimStyleTable
  0
DIMSTYLE
105
27
330
A
100
AcDbSymbolTableRecord
100
AcDbDimStyleTableRecord
  2
Standard
 70
     0
340
11
  0
ENDTAB
  0
TABLE
  2
BLOCK_RECORD
  5
1
330
0
100
AcDbSymbolTable
 70
     5
  0
BLOCK_RECORD
  5
1F
330
1
100
AcDbSymbolTableRecord
100
AcDbBlockTableRecord
  2
*Model_Space
340
22
  0
BLOCK_RECORD
  5
1B
330
1
100
AcDbSymbolTableRecord
100
AcDbBlockTableRecord
  2
*Paper_Space
340
1E
  0
BLOCK_RECORD
  5
23
330
1
100
AcDbSymbolTableRecord
100
AcDbBlockTableRecord
  2
*Paper_Space0
340
26
  0
BLOCK_RECORD
  5
F9
330
1
100
AcDbSymbolTableRecord
100
AcDbBlockTableRecord
  2
block 2
340
0
102
{BLKREFS
331
FA
102
}
  0
BLOCK_RECORD
  5
FE
330
1
100
AcDbSymbolTableRecord
100
AcDbBlockTableRecord
  2
block 3
340
0
102
{BLKREFS
331
FF
102
}
  0
BLOCK_RECORD
  5
103
330
1
100
AcDbSymbolTableRecord
100
AcDbBlockTableRecord
  2
block 4
340
0
102
{BLKREFS
331
104
102
}
  0
BLOCK_RECORD
  5
109
330
1
100
AcDbSymbolTableRecord
100
AcDbBlockTableRecord
  2
block 5
340
0
102
{BLKREFS
331
10A
102
}
  0
ENDTAB
  0
ENDSEC
  0
SECTION
  2
BLOCKS
  0
BLOCK
  5
20
330
1F
100
AcDbEntity
  8
0
100
AcDbBlockBegin
  2
*Model_Space
 70
     0
 71
     0
 10
0.0
 20
0.0
 30
0.0
  3
*Model_Space
  1

  0
ENDBLK
  5
21
330
1F
100
AcDbEntity
  8
0
100
AcDbBlockEnd
  0
BLOCK
  5
1C
330
1B
100
AcDbEntity
 67
     1
  8
0
100
AcDbBlockBegin
  2
*Paper_Space
 70
     0
 71
     0
 10
0.0
 20
0.0
 30
0.0
  3
*Paper_Space
  1

  0
ENDBLK
  5
1D
330
1B
100
AcDbEntity
 67
     1
  8
0
100
AcDbBlockEnd
  0
BLOCK
  5
24
330
23
100
AcDbEntity
  8
0
100
AcDbBlockBegin
  2
*Paper_Space0
 70
     0
 71
     0
 10
0.0
 20
0.0
 30
0.0
  3
*Paper_Space0
  1

  0
ENDBLK
  5
25
330
23
100
AcDbEntity
  8
0
100
AcDbBlockEnd
  0
BLOCK
  5
FB
330
F9
100
AcDbEntity
  8
0
100
AcDbBlockBegin
  2
block 2
 70
     0
 71
     0
 10
0.0
 20
0.0
 30
0.0
  3
block 2
  1

  0
MTEXT
  5
FD
330
F9
100
AcDbEntity
  8
Livello 1
 62
     7
420
 16777215
100
AcDbMText
 10
88.35659445333133
 20
146.1455255198202
 30
0.0
 40
2.970735586248451
 41
0.0
 71
     7
 72
     1
  1
\fCentury Gothic|b0|i0|c0|p34;\W1.0003;70
 11
0.9999999982000001
 21
5.999999844827251E-5
 31
0.0
 73
     1
 44
1.0
  0
ENDBLK
  5
FC
330
F9
100
AcDbEntity
  8
0
100
AcDbBlockEnd
  0
BLOCK
  5
100
330
FE
100
AcDbEntity
  8
0
100
AcDbBlockBegin
  2
block 3
 70
     0
 71
     0
 10
0.0
 20
0.0
 30
0.0
  3
block 3
  1

  0
MTEXT
  5
102
330
FE
100
AcDbEntity
  8
Livello 1
 62
     7
420
 16777215
100
AcDbMText
 10
94.45097238716555
 20
148.4875029756825
 30
0.0
 40
2.970735586248451
 41
0.0
 71
     7
 72
     1
  1
\fCentury Gothic|b0|i0|c0|p34;\W1.0003;7
 11
0.9999999982000001
 21
5.999999844827251E-5
 31
0.0
 73
     1
 44
1.0
  0
ENDBLK
  5
101
330
FE
100
AcDbEntity
  8
0
100
AcDbBlockEnd
  0
BLOCK
  5
105
330
103
100
AcDbEntity
  8
0
100
AcDbBlockBegin
  2
block 4
 70
     0
 71
     0
 10
0.0
 20
0.0
 30
0.0
  3
block 4
  1

  0
MTEXT
  5
107
330
103
100
AcDbEntity
  8
Livello 1
 62
     7
420
 16777215
100
AcDbMText
 10
94.45097238716555
 20
143.9141357019884
 30
0.0
 40
2.970735586248451
 41
0.0
 71
     7
 72
     1
  1
\fCentury Gothic|b0|i0|c0|p34;\W1.0003;8
 11
0.9999999982000001
 21
5.999999844827251E-5
 31
0.0
 73
     1
 44
1.0
  0
ENDBLK
  5
106
330
103
100
AcDbEntity
  8
0
100
AcDbBlockEnd
  0
BLOCK
  5
10B
330
109
100
AcDbEntity
  8
0
100
AcDbBlockBegin
  2
block 5
 70
     0
 71
     0
 10
0.0
 20
0.0
 30
0.0
  3
block 5
  1

  0
MTEXT
  5
10D
330
109
100
AcDbEntity
  8
Livello 1
 62
     7
420
 16777215
100
AcDbMText
 10
89.91808501212746
 20
139.4809839070433
 30
0.0
 40
2.970735586248451
 41
0.0
 71
     7
 72
     1
  1
\fCentury Gothic|b0|i0|c0|p34;\W1.0003;180
 11
0.9999999982000001
 21
5.999999844827251E-5
 31
0.0
 73
     1
 44
1.0
  0
ENDBLK
  5
10C
330
109
100
AcDbEntity
  8
0
100
AcDbBlockEnd
  0
ENDSEC
  0
SECTION
  2
ENTITIES
  0
SPLINE
  5
3C
330
1F
100
AcDbEntity
  8
Livello 1
 62
     7
420
 16777215
370
    53
100
AcDbSpline
210
0.0
220
0.0
230
1.0
 70
     8
 71
     3
 72
    38
 73
    34
 74
     0
 42
0.0000000001
 43
0.0000000001
 40
0.0
 40
0.0
 40
0.0
 40
0.0
 40
1.0
 40
1.0
 40
1.0
 40
2.0
 40
2.0
 40
2.0
 40
3.0
 40
3.0
 40
3.0
 40
4.0
 40
4.0
 40
4.0
 40
5.0
 40
5.0
 40
5.0
 40
6.0
 40
6.0
 40
6.0
 40
7.0
 40
7.0
 40
7.0
 40
8.0
 40
8.0
 40
8.0
 40
9.0
 40
9.0
 40
9.0
 40
10.0
 40
10.0
 40
10.0
 40
11.0
 40
11.0
 40
11.0
 40
11.0
 10
25.99360709359674
 20
180.2909229283059
 30
0.0
 10
25.99360709359674
 20
180.2909229283059
 30
0.0
 10
45.75796067613504
 20
186.206328033614
 30
0.0
 10
45.75796067613504
 20
186.206328033614
 30
0.0
 10
45.75796067613504
 20
186.206328033614
 30
0.0
 10
47.70650796803817
 20
184.779713052042
 30
0.0
 10
49.23768166656425
 20
179.3166492823543
 30
0.0
 10
50.76868311020242
 20
173.8539300224423
 30
0.0
 10
51.08184249640114
 20
170.095500623394
 30
0.0
 10
51.08184249640114
 20
170.095500623394
 30
0.0
 10
51.08184249640114
 20
170.095500623394
 30
0.0
 10
40.92121567884473
 20
168.2165443062017
 30
0.0
 10
40.92121567884473
 20
168.2165443062017
 30
0.0
 10
40.92121567884473
 20
168.2165443062017
 30
0.0
 10
32.2915903049265
 20
166.6507473752081
 30
0.0
 10
32.2915903049265
 20
166.6507473752081
 30
0.0
 10
32.2915903049265
 20
166.6507473752081
 30
0.0
 10
30.89977081070998
 20
166.5811564004973
 30
0.0
 10
28.46408669583106
 20
171.0005278044106
 30
0.0
 10
26.02823032606425
 20
175.419554698548
 30
0.0
 10
25.99360709359674
 20
180.2909229283059
 30
0.0
 10
25.99360709359674
 20
180.2909229283059
 30
0.0
 10
25.99360709359674
 20
180.2909229283059
 30
0.0
 10
19.55592516818163
 20
181.752677907009
 30
0.0
 10
19.55592516818163
 20
181.752677907009
 30
0.0
 10
19.55592516818163
 20
181.752677907009
 30
0.0
 10
18.79042444636254
 20
179.7343673855071
 30
0.0
 10
18.82556444349375
 20
177.2985110157403
 30
0.0
 10
18.86018767596126
 20
174.8628269008614
 30
0.0
 10
19.79966583455742
 20
174.2018848959965
 30
0.0
 10
19.79966583455742
 20
174.2018848959965
 30
0.0
 10
19.79966583455742
 20
174.2018848959965
 30
0.0
 10
28.77724608202978
 20
170.3392412897698
 30
0.0
 10
28.77724608202978
 20
170.3392412897698
 30
0.0
  0
POLYLINE
  5
3D
330
1F
100
AcDbEntity
  8
Livello 1
 62
     7
420
 16777215
370
    53
100
AcDb2dPolyline
 66
     1
 10
0.0
 20
0.0
 30
0.0
  0
VERTEX
  5
3E
330
3D
100
AcDbEntity
  8
Livello 1
 62
     7
420
 16777215
370
    53
100
AcDbVertex
100
AcDb2dVertex
 10
46.80372010056431
 20
184.9898640152777
 30
0.0
  0
VERTEX
  5
3F
330
3D
100
AcDbEntity
  8
Livello 1
 62
     7
420
 16777215
370
    53
100
AcDbVertex
100
AcDb2dVertex
 10
55.11811902962906
 20
184.9898640152777
 30
0.0
  0
SEQEND
  5
40
330
3D
100
AcDbEntity
  8
Livello 1
370
    53
  0
SPLINE
  5
41
330
1F
100
AcDbEntity
  8
Livello 1
 62
     7
420
 16777215
370
    53
100
AcDbSpline
210
0.0
220
0.0
230
1.0
 70
     8
 71
     3
 72
    14
 73
    10
 74
     0
 42
0.0000000001
 43
0.0000000001
 40
0.0
 40
0.0
 40
0.0
 40
0.0
 40
1.0
 40
1.0
 40
1.0
 40
2.0
 40
2.0
 40
2.0
 40
3.0
 40
3.0
 40
3.0
 40
3.0
 10
50.63449655252982
 20
173.2345014455608
 30
0.0
 10
50.63449655252982
 20
173.2345014455608
 30
0.0
 10
51.36020639524445
 20
172.1139833997838
 30
0.0
 10
52.33448004119601
 20
171.209300728543
 30
0.0
 10
53.30892594203547
 20
170.3042735475265
 30
0.0
 10
54.45717702476411
 20
169.6435037975495
 30
0.0
 10
54.45717702476411
 20
169.6435037975495
 30
0.0
 10
54.45717702476411
 20
169.6435037975495
 30
0.0
 10
66.61906112992045
 20
170.5554211740819
 30
0.0
 10
66.61906112992045
 20
170.5554211740819
 30
0.0
  0
SPLINE
  5
42
330
1F
100
AcDbEntity
  8
Livello 1
 62
     7
420
 16777215
370
    53
100
AcDbSpline
210
0.0
220
0.0
230
1.0
 70
     8
 71
     3
 72
    20
 73
    16
 74
     0
 42
0.0000000001
 43
0.0000000001
 40
0.0
 40
0.0
 40
0.0
 40
0.0
 40
1.0
 40
1.0
 40
1.0
 40
2.0
 40
2.0
 40
2.0
 40
3.0
 40
3.0
 40
3.0
 40
4.0
 40
4.0
 40
4.0
 40
5.0
 40
5.0
 40
5.0
 40
5.0
 10
69.78441694993566
 20
168.3879379196603
 30
0.0
 10
69.78441694993566
 20
168.3879379196603
 30
0.0
 10
68.34092098934971
 20
168.3906939978667
 30
0.0
 10
68.34092098934971
 20
168.3906939978667
 30
0.0
 10
68.34092098934971
 20
168.3906939978667
 30
0.0
 10
54.94414159285199
 20
185.2323988974382
 30
0.0
 10
54.94414159285199
 20
185.2323988974382
 30
0.0
 10
54.94414159285199
 20
185.2323988974382
 30
0.0
 10
80.13710796749842
 20
190.1733581019069
 30
0.0
 10
80.13710796749842
 20
190.1733581019069
 30
0.0
 10
80.13710796749842
 20
190.1733581019069
 30
0.0
 10
80.83301771460668
 20
189.1527478911107
 30
0.0
 10
81.29690012771623
 20
187.3432102937413
 30
0.0
 10
81.76095479571367
 20
185.5338449512599
 30
0.0
 10
81.94647330997991
 20
183.9561624330013
 30
0.0
 10
81.94647330997991
 20
183.9561624330013
 30
0.0
  0
SPLINE
  5
43
330
1F
100
AcDbEntity
  8
Livello 1
 62
     7
420
 16777215
370
    53
100
AcDbSpline
210
0.0
220
0.0
230
1.0
 70
     8
 71
     3
 72
    20
 73
    16
 74
     0
 42
0.0000000001
 43
0.0000000001
 40
0.0
 40
0.0
 40
0.0
 40
0.0
 40
1.0
 40
1.0
 40
1.0
 40
2.0
 40
2.0
 40
2.0
 40
3.0
 40
3.0
 40
3.0
 40
4.0
 40
4.0
 40
4.0
 40
5.0
 40
5.0
 40
5.0
 40
5.0
 10
89.31570966914785
 20
172.4433347454449
 30
0.0
 10
89.31570966914785
 20
172.4433347454449
 30
0.0
 10
87.83862400542178
 20
169.017185025152
 30
0.0
 10
87.32840502746765
 20
166.3260469115203
 30
0.0
 10
86.81818604951353
 20
163.6352533076643
 30
0.0
 10
86.58598646062691
 20
160.8512698094554
 30
0.0
 10
86.58598646062691
 20
160.8512698094554
 30
0.0
 10
86.58598646062691
 20
160.8512698094554
 30
0.0
 10
69.00203524910256
 20
168.7388211263087
 30
0.0
 10
69.00203524910256
 20
168.7388211263087
 30
0.0
 10
69.00203524910256
 20
168.7388211263087
 30
0.0
 10
70.15166437093437
 20
171.3295346402959
 30
0.0
 10
71.46114602873561
 20
173.4246708418003
 30
0.0
 10
73.78073034917121
 20
177.1362469113404
 30
0.0
 10
84.4729357507811
 20
186.1599914687694
 30
0.0
 10
84.4729357507811
 20
186.1599914687694
 30
0.0
  0
SPLINE
  5
44
330
1F
100
AcDbEntity
  8
Livello 1
 62
     7
420
 16777215
370
    53
100
AcDbSpline
210
0.0
220
0.0
230
1.0
 70
     8
 71
     3
 72
    17
 73
    13
 74
     0
 42
0.0000000001
 43
0.0000000001
 40
0.0
 40
0.0
 40
0.0
 40
0.0
 40
1.0
 40
1.0
 40
1.0
 40
2.0
 40
2.0
 40
2.0
 40
3.0
 40
3.0
 40
3.0
 40
4.0
 40
4.0
 40
4.0
 40
4.0
 10
79.20917088639145
 20
189.9914569402865
 30
0.0
 10
79.20917088639145
 20
189.9914569402865
 30
0.0
 10
79.24723921661692
 20
191.4731934859858
 30
0.0
 10
79.81223524892265
 20
191.8437137498546
 30
0.0
 10
81.15771817829457
 20
192.7249697563412
 30
0.0
 10
88.72022452168417
 20
180.7088132863466
 30
0.0
 10
89.41613426879243
 20
171.4387442392233
 30
0.0
 10
89.96941696872109
 20
164.0732974875891
 30
0.0
 10
87.17527043212625
 20
165.4697678637789
 30
0.0
 10
87.17527043212625
 20
165.4697678637789
 30
0.0
 10
87.17527043212625
 20
165.4697678637789
 30
0.0
 10
95.21543957965724
 20
163.5420634133114
 30
0.0
 10
95.21543957965724
 20
163.5420634133114
 30
0.0
  0
SPLINE
  5
45
330
1F
100
AcDbEntity
  8
Livello 1
 62
     7
420
 16777215
370
    53
100
AcDbSpline
210
0.0
220
0.0
230
1.0
 70
    11
 71
     3
 72
    32
 73
    28
 74
     0
 42
0.0000000001
 43
0.0000000001
 40
0.0
 40
0.0
 40
0.0
 40
0.0
 40
1.0
 40
1.0
 40
1.0
 40
2.0
 40
2.0
 40
2.0
 40
3.0
 40
3.0
 40
3.0
 40
4.0
 40
4.0
 40
4.0
 40
5.0
 40
5.0
 40
5.0
 40
6.0
 40
6.0
 40
6.0
 40
7.0
 40
7.0
 40
7.0
 40
8.0
 40
8.0
 40
8.0
 40
9.0
 40
9.0
 40
9.0
 40
9.0
 10
113.263445459179
 20
169.6435037975495
 30
0.0
 10
113.263445459179
 20
169.6435037975495
 30
0.0
 10
96.35232183978461
 20
161.7097881707395
 30
0.0
 10
96.35232183978461
 20
161.7097881707395
 30
0.0
 10
96.35232183978461
 20
161.7097881707395
 30
0.0
 10
95.62109984065724
 20
162.3939845854707
 30
0.0
 10
94.7517294214356
 20
165.0501549568591
 30
0.0
 10
90.92405355745227
 20
176.7417832180537
 30
0.0
 10
91.15470285234781
 20
185.6184221012178
 30
0.0
 10
89.31570966914785
 20
189.4774483547986
 30
0.0
 10
88.48923071701284
 20
191.2122273308202
 30
0.0
 10
87.06537181364727
 20
191.8149471835756
 30
0.0
 10
86.0742171886817
 20
192.0211362843896
 30
0.0
 10
85.43360126058873
 20
192.1544615676227
 30
0.0
 10
84.97385296478873
 20
192.1217331389221
 30
0.0
 10
84.97385296478873
 20
192.1217331389221
 30
0.0
 10
84.97385296478873
 20
192.1217331389221
 30
0.0
 10
90.85566836695673
 20
192.2355936198227
 30
0.0
 10
90.85566836695673
 20
192.2355936198227
 30
0.0
 10
90.85566836695673
 20
192.2355936198227
 30
0.0
 10
96.21296763547505
 20
192.4002692926533
 30
0.0
 10
101.1542713497195
 20
188.503174708847
 30
0.0
 10
106.0955750639639
 20
184.6059078701529
 30
0.0
 10
106.7911403012964
 20
180.5694590820371
 30
0.0
 10
109.0180514920429
 20
176.428623831855
 30
0.0
 10
111.2449626827893
 20
172.2879608365608
 30
0.0
 10
113.263445459179
 20
169.6435037975495
 30
0.0
 10
113.263445459179
 20
169.6435037975495
 30
0.0
  0
POLYLINE
  5
46
330
1F
100
AcDbEntity
  8
Livello 1
 62
     7
420
 16777215
370
    53
100
AcDb2dPolyline
 66
     1
 10
0.0
 20
0.0
 30
0.0
  0
VERTEX
  5
47
330
46
100
AcDbEntity
  8
Livello 1
 62
     7
420
 16777215
370
    53
100
AcDbVertex
100
AcDb2dVertex
 10
79.94917788480161
 20
191.8883277658202
 30
0.0
  0
VERTEX
  5
48
330
46
100
AcDbEntity
  8
Livello 1
 62
     7
420
 16777215
370
    53
100
AcDbVertex
100
AcDb2dVertex
 10
86.16206718150973
 20
192.0011547173934
 30
0.0
  0
SEQEND
  5
49
330
46
100
AcDbEntity
  8
Livello 1
370
    53
  0
SPLINE
  5
4A
330
1F
100
AcDbEntity
  8
Livello 1
 62
     7
420
 16777215
370
    53
100
AcDbSpline
210
0.0
220
0.0
230
1.0
 70
     8
 71
     3
 72
    14
 73
    10
 74
     0
 42
0.0000000001
 43
0.0000000001
 40
0.0
 40
0.0
 40
0.0
 40
0.0
 40
1.0
 40
1.0
 40
1.0
 40
2.0
 40
2.0
 40
2.0
 40
3.0
 40
3.0
 40
3.0
 40
3.0
 10
92.28056079964969
 20
192.1513609796406
 30
0.0
 10
92.28056079964969
 20
192.1513609796406
 30
0.0
 10
102.5114676114685
 20
192.0011547173934
 30
0.0
 10
102.5114676114685
 20
192.0011547173934
 30
0.0
 10
102.5114676114685
 20
192.0011547173934
 30
0.0
 10
103.9031148507971
 20
191.3564046719909
 30
0.0
 10
104.5990245979054
 20
188.8509573275133
 30
0.0
 10
105.2484255252812
 20
186.5136307536242
 30
0.0
 10
105.1636761204353
 20
184.1583896713936
 30
0.0
 10
105.1636761204353
 20
184.1583896713936
 30
0.0
  0
SPLINE
  5
4B
330
1F
100
AcDbEntity
  8
Livello 1
 62
     7
420
 16777215
370
    53
100
AcDbSpline
210
0.0
220
0.0
230
1.0
 70
     8
 71
     3
 72
    20
 73
    16
 74
     0
 42
0.0000000001
 43
0.0000000001
 40
0.0
 40
0.0
 40
0.0
 40
0.0
 40
1.0
 40
1.0
 40
1.0
 40
2.0
 40
2.0
 40
2.0
 40
3.0
 40
3.0
 40
3.0
 40
4.0
 40
4.0
 40
4.0
 40
5.0
 40
5.0
 40
5.0
 40
5.0
 10
104.3146317779857
 20
189.6934559842228
 30
0.0
 10
104.3146317779857
 20
189.6934559842228
 30
0.0
 10
126.3007289046335
 20
185.7657000303707
 30
0.0
 10
126.3007289046335
 20
185.7657000303707
 30
0.0
 10
126.3007289046335
 20
185.7657000303707
 30
0.0
 10
126.6424826022233
 20
185.5615779882114
 30
0.0
 10
127.1282413860959
 20
185.1106146916943
 30
0.0
 10
128.2137916896296
 20
184.103612617042
 30
0.0
 10
130.0169558561467
 20
181.8663661330217
 30
0.0
 10
130.3370054378614
 20
177.9248297881378
 30
0.0
 10
130.8010601058588
 20
172.2181976069621
 30
0.0
 10
129.8732952796397
 20
169.759259082217
 30
0.0
 10
129.8732952796397
 20
169.759259082217
 30
0.0
 10
129.8732952796397
 20
169.759259082217
 30
0.0
 10
113.0109197935205
 20
169.5249924346756
 30
0.0
 10
113.0109197935205
 20
169.5249924346756
 30
0.0
  0
POLYLINE
  5
4C
330
1F
100
AcDbEntity
  8
Livello 1
 62
     7
420
 16777215
370
    53
100
AcDb2dPolyline
 66
     1
 10
0.0
 20
0.0
 30
0.0
  0
VERTEX
  5
4D
330
4C
100
AcDbEntity
  8
Livello 1
 62
     7
420
 16777215
370
    53
100
AcDbVertex
100
AcDb2dVertex
 10
136.4751361132217
 20
184.0509026213452
 30
0.0
  0
VERTEX
  5
4E
330
4C
100
AcDbEntity
  8
Livello 1
 62
     7
420
 16777215
370
    53
100
AcDbVertex
100
AcDb2dVertex
 10
127.1282413860959
 20
185.1106146916943
 30
0.0
  0
SEQEND
  5
4F
330
4C
100
AcDbEntity
  8
Livello 1
370
    53
  0
POLYLINE
  5
50
330
1F
100
AcDbEntity
  8
Livello 1
 62
     7
420
 16777215
370
    53
100
AcDb2dPolyline
 66
     1
 10
0.0
 20
0.0
 30
0.0
  0
VERTEX
  5
51
330
50
100
AcDbEntity
  8
Livello 1
 62
     7
420
 16777215
370
    53
100
AcDbVertex
100
AcDb2dVertex
 10
130.0483062457442
 20
170.3900564816998
 30
0.0
  0
VERTEX
  5
52
330
50
100
AcDbEntity
  8
Livello 1
 62
     7
420
 16777215
370
    53
100
AcDbVertex
100
AcDb2dVertex
 10
141.1704598475477
 20
170.8959690874564
 30
0.0
  0
SEQEND
  5
53
330
50
100
AcDbEntity
  8
Livello 1
370
    53
  0
SPLINE
  5
54
330
1F
100
AcDbEntity
  8
Livello 1
 62
     7
420
 16777215
370
    53
100
AcDbSpline
210
0.0
220
0.0
230
1.0
 70
     8
 71
     3
 72
    29
 73
    25
 74
     0
 42
0.0000000001
 43
0.0000000001
 40
0.0
 40
0.0
 40
0.0
 40
0.0
 40
1.0
 40
1.0
 40
1.0
 40
2.0
 40
2.0
 40
2.0
 40
3.0
 40
3.0
 40
3.0
 40
4.0
 40
4.0
 40
4.0
 40
5.0
 40
5.0
 40
5.0
 40
6.0
 40
6.0
 40
6.0
 40
7.0
 40
7.0
 40
7.0
 40
8.0
 40
8.0
 40
8.0
 40
8.0
 10
134.7567213515504
 20
185.4318700576242
 30
0.0
 10
134.7567213515504
 20
185.4318700576242
 30
0.0
 10
154.9732440148212
 20
180.5229502623046
 30
0.0
 10
154.9732440148212
 20
180.5229502623046
 30
0.0
 10
154.9732440148212
 20
180.5229502623046
 30
0.0
 10
155.193385761555
 20
180.3432884142269
 30
0.0
 10
155.3935459412925
 20
179.7562437562702
 30
0.0
 10
155.6219559226454
 20
179.0884115558893
 30
0.0
 10
155.8241831610378
 20
177.8936516534282
 30
0.0
 10
155.6457270971753
 20
175.837100546813
 30
0.0
 10
155.2516079136645
 20
171.2902605258552
 30
0.0
 10
152.7924971340315
 20
169.2025312845304
 30
0.0
 10
152.7924971340315
 20
169.2025312845304
 30
0.0
 10
152.7924971340315
 20
169.2025312845304
 30
0.0
 10
141.1704598475477
 20
170.3900564816998
 30
0.0
 10
141.1704598475477
 20
170.3900564816998
 30
0.0
 10
141.1776945528394
 20
174.7906521028321
 30
0.0
 10
137.6440577824981
 20
184.8551606929414
 30
0.0
 10
134.5761982290332
 20
185.4802736811235
 30
0.0
 10
134.4773239233797
 20
185.5002552481197
 30
0.0
 10
134.3784496177262
 20
185.5105905413936
 30
0.0
 10
134.2806088414001
 20
185.5105905413936
 30
0.0
 10
133.2367442207377
 20
185.5105905413936
 30
0.0
 10
132.9514901263785
 20
184.4720658222561
 30
0.0
 10
132.9514901263785
 20
184.4720658222561
 30
0.0
  0
SPLINE
  5
55
330
1F
100
AcDbEntity
  8
Livello 1
 62
     7
420
 16777215
370
    53
100
AcDbSpline
210
0.0
220
0.0
230
1.0
 70
     8
 71
     3
 72
    17
 73
    13
 74
     0
 42
0.0000000001
 43
0.0000000001
 40
0.0
 40
0.0
 40
0.0
 40
0.0
 40
1.0
 40
1.0
 40
1.0
 40
2.0
 40
2.0
 40
2.0
 40
3.0
 40
3.0
 40
3.0
 40
4.0
 40
4.0
 40
4.0
 40
4.0
 10
155.3935459412925
 20
179.7562437562702
 30
0.0
 10
155.3935459412925
 20
179.7562437562702
 30
0.0
 10
162.6399645653891
 20
181.7177101647657
 30
0.0
 10
162.6399645653891
 20
181.7177101647657
 30
0.0
 10
162.6399645653891
 20
181.7177101647657
 30
0.0
 10
163.7537646705382
 20
180.7088132863466
 30
0.0
 10
163.718624673407
 20
178.0989794798027
 30
0.0
 10
163.6834846762758
 20
175.4891456732589
 30
0.0
 10
162.2227632269
 20
173.4012441770462
 30
0.0
 10
162.2227632269
 20
173.4012441770462
 30
0.0
 10
162.2227632269
 20
173.4012441770462
 30
0.0
 10
153.9641748815142
 20
170.6430989120221
 30
0.0
 10
153.9641748815142
 20
170.6430989120221
 30
0.0
  0
POLYLINE
  5
56
330
1F
100
AcDbEntity
  8
Livello 1
 62
     7
420
 16777215
370
    53
100
AcDb2dPolyline
 66
     1
 10
0.0
 20
0.0
 30
0.0
  0
VERTEX
  5
57
330
56
100
AcDbEntity
  8
Livello 1
 62
     7
420
 16777215
370
    53
100
AcDbVertex
100
AcDb2dVertex
 10
53.55232209863546
 20
249.8653611698938
 30
0.0
  0
VERTEX
  5
58
330
56
100
AcDbEntity
  8
Livello 1
 62
     7
420
 16777215
370
    53
100
AcDbVertex
100
AcDb2dVertex
 10
53.55232209863546
 20
184.9898640152777
 30
0.0
  0
SEQEND
  5
59
330
56
100
AcDbEntity
  8
Livello 1
370
    53
  0
POLYLINE
  5
5A
330
1F
100
AcDbEntity
  8
Livello 1
 62
     7
420
 16777215
370
    53
100
AcDb2dPolyline
 66
     1
 10
0.0
 20
0.0
 30
0.0
  0
VERTEX
  5
5B
330
5A
100
AcDbEntity
  8
Livello 1
 62
     7
420
 16777215
370
    53
100
AcDbVertex
100
AcDb2dVertex
 10
128.713330864534
 20
249.8653611698938
 30
0.0
  0
VERTEX
  5
5C
330
5A
100
AcDbEntity
  8
Livello 1
 62
     7
420
 16777215
370
    53
100
AcDbVertex
100
AcDb2dVertex
 10
128.713330864534
 20
184.8723861817312
 30
0.0
  0
SEQEND
  5
5D
330
5A
100
AcDbEntity
  8
Livello 1
370
    53
  0
SPLINE
  5
5E
330
1F
100
AcDbEntity
  8
Livello 1
 62
     7
420
 16777215
370
    53
100
AcDbSpline
210
0.0
220
0.0
230
1.0
 70
     8
 71
     3
 72
    20
 73
    16
 74
     0
 42
0.0000000001
 43
0.0000000001
 40
0.0
 40
0.0
 40
0.0
 40
0.0
 40
1.0
 40
1.0
 40
1.0
 40
2.0
 40
2.0
 40
2.0
 40
3.0
 40
3.0
 40
3.0
 40
4.0
 40
4.0
 40
4.0
 40
5.0
 40
5.0
 40
5.0
 40
5.0
 10
59.63136934744676
 20
247.9202589757486
 30
0.0
 10
59.63136934744676
 20
247.9202589757486
 30
0.0
 10
59.51613082744294
 20
245.2368723320722
 30
0.0
 10
57.65853411635
 20
242.3059554144863
 30
0.0
 10
55.17031226066217
 20
238.3800942644011
 30
0.0
 10
49.19978559122667
 20
237.070268096824
 30
0.0
 10
47.89219873719231
 20
232.8572580486127
 30
0.0
 10
44.55183195107266
 20
222.0935668685251
 30
0.0
 10
61.81091044402122
 20
221.4438214313735
 30
0.0
 10
61.81091044402122
 20
212.721695182654
 30
0.0
 10
61.81091044402122
 20
200.9370492819945
 30
0.0
 10
43.73689407642682
 20
202.0484378187129
 30
0.0
 10
43.06699481739117
 20
196.0191722325042
 30
0.0
 10
42.41759389001539
 20
190.1733581019069
 30
0.0
 10
51.51092942215526
 20
184.9898640152777
 30
0.0
 10
51.51092942215526
 20
184.9898640152777
 30
0.0
  0
POLYLINE
  5
5F
330
1F
100
AcDbEntity
  8
Livello 1
 62
     7
420
 16777215
370
    53
100
AcDb2dPolyline
 66
     1
 10
0.0
 20
0.0
 30
0.0
  0
VERTEX
  5
60
330
5F
100
AcDbEntity
  8
Livello 1
 62
     7
420
 16777215
370
    53
100
AcDbVertex
100
AcDb2dVertex
 10
56.83791183040353
 20
248.0854514132429
 30
0.0
  0
VERTEX
  5
61
330
5F
100
AcDbEntity
  8
Livello 1
 62
     7
420
 16777215
370
    53
100
AcDbVertex
100
AcDb2dVertex
 10
62.4522153916658
 20
248.0854514132429
 30
0.0
  0
VERTEX
  5
62
330
5F
100
AcDbEntity
  8
Livello 1
 62
     7
420
 16777215
370
    53
100
AcDbVertex
100
AcDb2dVertex
 10
62.4522153916658
 20
249.8653611698938
 30
0.0
  0
VERTEX
  5
63
330
5F
100
AcDbEntity
  8
Livello 1
 62
     7
420
 16777215
370
    53
100
AcDbVertex
100
AcDb2dVertex
 10
56.83791183040353
 20
249.8653611698938
 30
0.0
  0
VERTEX
  5
64
330
5F
100
AcDbEntity
  8
Livello 1
 62
     7
420
 16777215
370
    53
100
AcDbVertex
100
AcDb2dVertex
 10
56.83791183040353
 20
248.0854514132429
 30
0.0
  0
SEQEND
  5
65
330
5F
100
AcDbEntity
  8
Livello 1
370
    53
  0
POLYLINE
  5
66
330
1F
100
AcDbEntity
  8
Livello 1
 62
     7
420
 16777215
370
    53
100
AcDb2dPolyline
 66
     1
 10
0.0
 20
0.0
 30
0.0
  0
VERTEX
  5
67
330
66
100
AcDbEntity
  8
Livello 1
 62
     7
420
 16777215
370
    53
100
AcDbVertex
100
AcDb2dVertex
 10
55.43420674892204
 20
248.0854514132429
 30
0.0
  0
VERTEX
  5
68
330
66
100
AcDbEntity
  8
Livello 1
 62
     7
420
 16777215
370
    53
100
AcDbVertex
100
AcDb2dVertex
 10
63.82835969108359
 20
248.0854514132429
 30
0.0
  0
SEQEND
  5
69
330
66
100
AcDbEntity
  8
Livello 1
370
    53
  0
POLYLINE
  5
6A
330
1F
100
AcDbEntity
  8
Livello 1
 62
     7
420
 16777215
370
    53
100
AcDb2dPolyline
 66
     1
 10
0.0
 20
0.0
 30
0.0
  0
VERTEX
  5
6B
330
6A
100
AcDbEntity
  8
Livello 1
 62
     7
420
 16777215
370
    53
100
AcDbVertex
100
AcDb2dVertex
 10
53.73663482868642
 20
248.8283867447473
 30
0.0
  0
VERTEX
  5
6C
330
6A
100
AcDbEntity
  8
Livello 1
 62
     7
420
 16777215
370
    53
100
AcDbVertex
100
AcDb2dVertex
 10
53.38575162203802
 20
248.8283867447473
 30
0.0
  0
VERTEX
  5
6D
330
6A
100
AcDbEntity
  8
Livello 1
 62
     7
420
 16777215
370
    53
100
AcDbVertex
100
AcDb2dVertex
 10
53.38575162203802
 20
249.8653611698938
 30
0.0
  0
VERTEX
  5
6E
330
6A
100
AcDbEntity
  8
Livello 1
 62
     7
420
 16777215
370
    53
100
AcDbVertex
100
AcDb2dVertex
 10
53.73663482868642
 20
249.8653611698938
 30
0.0
  0
VERTEX
  5
6F
330
6A
100
AcDbEntity
  8
Livello 1
 62
     7
420
 16777215
370
    53
100
AcDbVertex
100
AcDb2dVertex
 10
53.73663482868642
 20
248.8283867447473
 30
0.0
  0
SEQEND
  5
70
330
6A
100
AcDbEntity
  8
Livello 1
370
    53
  0
POLYLINE
  5
71
330
1F
100
AcDbEntity
  8
Livello 1
 62
     7
420
 16777215
370
    53
100
AcDb2dPolyline
 66
     1
 10
0.0
 20
0.0
 30
0.0
  0
VERTEX
  5
72
330
71
100
AcDbEntity
  8
Livello 1
 62
     7
420
 16777215
370
    53
100
AcDbVertex
100
AcDb2dVertex
 10
128.8886863404143
 20
248.6013548024976
 30
0.0
  0
VERTEX
  5
73
330
71
100
AcDbEntity
  8
Livello 1
 62
     7
420
 16777215
370
    53
100
AcDbVertex
100
AcDb2dVertex
 10
128.537630878878
 20
248.6013548024976
 30
0.0
  0
VERTEX
  5
74
330
71
100
AcDbEntity
  8
Livello 1
 62
     7
420
 16777215
370
    53
100
AcDbVertex
100
AcDb2dVertex
 10
128.537630878878
 20
249.6383292276441
 30
0.0
  0
VERTEX
  5
75
330
71
100
AcDbEntity
  8
Livello 1
 62
     7
420
 16777215
370
    53
100
AcDbVertex
100
AcDb2dVertex
 10
128.8886863404143
 20
249.6383292276441
 30
0.0
  0
VERTEX
  5
76
330
71
100
AcDbEntity
  8
Livello 1
 62
     7
420
 16777215
370
    53
100
AcDbVertex
100
AcDb2dVertex
 10
128.8886863404143
 20
248.6013548024976
 30
0.0
  0
SEQEND
  5
77
330
71
100
AcDbEntity
  8
Livello 1
370
    53
  0
MTEXT
  5
78
330
1F
100
AcDbEntity
  8
Livello 1
 62
     7
420
 16777215
100
AcDbMText
 10
184.5638776775057
 20
167.9214716832323
 30
0.0
 40
2.970735586248451
 41
0.0
 71
     7
 72
     1
  1
\fCentury Gothic|b0|i0|c0|p34;\W1.0003; 
 11
-4.371139000186241E-8
 21
0.999999999999999
 31
0.0
 73
     1
 44
1.0
  0
MTEXT
  5
79
330
1F
100
AcDbEntity
  8
Livello 1
 62
     7
420
 16777215
100
AcDbMText
 10
177.7749680356664
 20
171.1288576958947
 30
0.0
 40
2.970735586248451
 41
0.0
 71
     7
 72
     1
  1
\fCentury Gothic|b0|i0|c0|p34;\W1.0003;13
 11
-4.371139000186241E-8
 21
0.999999999999999
 31
0.0
 73
     1
 44
1.0
  0
MTEXT
  5
7A
330
1F
100
AcDbEntity
  8
Livello 1
 62
     7
420
 16777215
100
AcDbMText
 10
175.3806250938831
 20
177.481617961576
 30
0.0
 40
2.970735586248451
 41
0.0
 71
     7
 72
     1
  1
\fCentury Gothic|b0|i0|c0|p34;\W1.0003;3
 11
-4.371139000186241E-8
 21
0.999999999999999
 31
0.0
 73
     1
 44
1.0
  0
MTEXT
  5
7B
330
1F
100
AcDbEntity
  8
Livello 1
 62
     7
420
 16777215
100
AcDbMText
 10
179.7145580733989
 20
177.4812734518002
 30
0.0
 40
2.970735586248451
 41
0.0
 71
     7
 72
     1
  1
\fCentury Gothic|b0|i0|c0|p34;\W1.0003;4
 11
-4.371139000186241E-8
 21
0.999999999999999
 31
0.0
 73
     1
 44
1.0
  0
MTEXT
  5
7C
330
1F
100
AcDbEntity
  8
Livello 1
 62
     7
420
 16777215
100
AcDbMText
 10
177.7749680356664
 20
180.8626369012396
 30
0.0
 40
2.970735586248451
 41
0.0
 71
     7
 72
     1
  1
\fCentury Gothic|b0|i0|c0|p34;\W1.00121;"
 11
-4.371139000186241E-8
 21
0.999999999999999
 31
0.0
 73
     1
 44
1.0
  0
MTEXT
  5
7D
330
1F
100
AcDbEntity
  8
Livello 1
 62
     7
420
 16777215
100
AcDbMText
 10
184.6162431634268
 20
175.7380539862716
 30
0.0
 40
2.970735586248451
 41
0.0
 71
     7
 72
     1
  1
\fCentury Gothic|b0|i0|c0|p34;\W1.0003;35
 11
-4.371139000186241E-8
 21
0.999999999999999
 31
0.0
 73
     1
 44
1.0
  0
MTEXT
  5
7E
330
1F
100
AcDbEntity
  8
Livello 1
 62
     7
420
 16777215
100
AcDbMText
 10
185.2287815447924
 20
190.0198789967897
 30
0.0
 40
2.970735586248451
 41
0.0
 71
     7
 72
     1
  1
\fCentury Gothic|b0|i0|c0|p34;\W1.0003; 
 11
-4.371139000186241E-8
 21
0.999999999999999
 31
0.0
 73
     1
 44
1.0
  0
POLYLINE
  5
7F
330
1F
100
AcDbEntity
  8
Livello 1
 62
     7
420
 16777215
370
    18
100
AcDb2dPolyline
 66
     1
 10
0.0
 20
0.0
 30
0.0
  0
VERTEX
  5
80
330
7F
100
AcDbEntity
  8
Livello 1
 62
     7
420
 16777215
370
    18
100
AcDbVertex
100
AcDb2dVertex
 10
186.5475649665401
 20
196.3821132813054
 30
0.0
  0
VERTEX
  5
81
330
7F
100
AcDbEntity
  8
Livello 1
 62
     7
420
 16777215
370
    18
100
AcDbVertex
100
AcDb2dVertex
 10
186.2171800915515
 20
193.046397377159
 30
0.0
  0
SEQEND
  5
82
330
7F
100
AcDbEntity
  8
Livello 1
370
    18
  0
POLYLINE
  5
83
330
1F
100
AcDbEntity
  8
Livello 1
 62
     7
420
 16777215
370
    18
100
AcDb2dPolyline
 66
     1
 10
0.0
 20
0.0
 30
0.0
  0
VERTEX
  5
84
330
83
100
AcDbEntity
  8
Livello 1
 62
     7
420
 16777215
370
    18
100
AcDbVertex
100
AcDb2dVertex
 10
185.8540667878624
 20
196.3821132813054
 30
0.0
  0
VERTEX
  5
85
330
83
100
AcDbEntity
  8
Livello 1
 62
     7
420
 16777215
370
    18
100
AcDbVertex
100
AcDb2dVertex
 10
186.5475649665401
 20
196.3821132813054
 30
0.0
  0
SEQEND
  5
86
330
83
100
AcDbEntity
  8
Livello 1
370
    18
  0
POLYLINE
  5
87
330
1F
100
AcDbEntity
  8
Livello 1
 62
     7
420
 16777215
370
    18
100
AcDb2dPolyline
 66
     1
 10
0.0
 20
0.0
 30
0.0
  0
VERTEX
  5
88
330
87
100
AcDbEntity
  8
Livello 1
 62
     7
420
 16777215
370
    18
100
AcDbVertex
100
AcDb2dVertex
 10
186.2171800915515
 20
193.046397377159
 30
0.0
  0
VERTEX
  5
89
330
87
100
AcDbEntity
  8
Livello 1
 62
     7
420
 16777215
370
    18
100
AcDbVertex
100
AcDb2dVertex
 10
185.8540667878624
 20
196.3821132813054
 30
0.0
  0
SEQEND
  5
8A
330
87
100
AcDbEntity
  8
Livello 1
370
    18
  0
POLYLINE
  5
8B
330
1F
100
AcDbEntity
  8
Livello 1
 62
     7
420
 16777215
370
    18
100
AcDb2dPolyline
 66
     1
 10
0.0
 20
0.0
 30
0.0
  0
VERTEX
  5
8C
330
8B
100
AcDbEntity
  8
Livello 1
 62
     7
420
 16777215
370
    18
100
AcDbVertex
100
AcDb2dVertex
 10
185.8540667878624
 20
157.5157261601969
 30
0.0
  0
VERTEX
  5
8D
330
8B
100
AcDbEntity
  8
Livello 1
 62
     7
420
 16777215
370
    18
100
AcDbVertex
100
AcDb2dVertex
 10
186.2171800915515
 20
160.8512698094554
 30
0.0
  0
SEQEND
  5
8E
330
8B
100
AcDbEntity
  8
Livello 1
370
    18
  0
POLYLINE
  5
8F
330
1F
100
AcDbEntity
  8
Livello 1
 62
     7
420
 16777215
370
    18
100
AcDb2dPolyline
 66
     1
 10
0.0
 20
0.0
 30
0.0
  0
VERTEX
  5
90
330
8F
100
AcDbEntity
  8
Livello 1
 62
     7
420
 16777215
370
    18
100
AcDbVertex
100
AcDb2dVertex
 10
186.5475649665401
 20
157.5157261601969
 30
0.0
  0
VERTEX
  5
91
330
8F
100
AcDbEntity
  8
Livello 1
 62
     7
420
 16777215
370
    18
100
AcDbVertex
100
AcDb2dVertex
 10
185.8540667878624
 20
157.5157261601969
 30
0.0
  0
SEQEND
  5
92
330
8F
100
AcDbEntity
  8
Livello 1
370
    18
  0
POLYLINE
  5
93
330
1F
100
AcDbEntity
  8
Livello 1
 62
     7
420
 16777215
370
    18
100
AcDb2dPolyline
 66
     1
 10
0.0
 20
0.0
 30
0.0
  0
VERTEX
  5
94
330
93
100
AcDbEntity
  8
Livello 1
 62
     7
420
 16777215
370
    18
100
AcDbVertex
100
AcDb2dVertex
 10
186.2171800915515
 20
160.8512698094554
 30
0.0
  0
VERTEX
  5
95
330
93
100
AcDbEntity
  8
Livello 1
 62
     7
420
 16777215
370
    18
100
AcDbVertex
100
AcDb2dVertex
 10
186.5475649665401
 20
157.5157261601969
 30
0.0
  0
SEQEND
  5
96
330
93
100
AcDbEntity
  8
Livello 1
370
    18
  0
POLYLINE
  5
97
330
1F
100
AcDbEntity
  8
Livello 1
 62
     7
420
 16777215
370
    18
100
AcDb2dPolyline
 66
     1
 10
0.0
 20
0.0
 30
0.0
  0
VERTEX
  5
98
330
97
100
AcDbEntity
  8
Livello 1
 62
     7
420
 16777215
370
    18
100
AcDbVertex
100
AcDb2dVertex
 10
186.2171800915515
 20
193.046397377159
 30
0.0
  0
VERTEX
  5
99
330
97
100
AcDbEntity
  8
Livello 1
 62
     7
420
 16777215
370
    18
100
AcDbVertex
100
AcDb2dVertex
 10
186.2171800915515
 20
198.9910858134098
 30
0.0
  0
SEQEND
  5
9A
330
97
100
AcDbEntity
  8
Livello 1
370
    18
  0
POLYLINE
  5
9B
330
1F
100
AcDbEntity
  8
Livello 1
 62
     7
420
 16777215
370
    18
100
AcDb2dPolyline
 66
     1
 10
0.0
 20
0.0
 30
0.0
  0
VERTEX
  5
9C
330
9B
100
AcDbEntity
  8
Livello 1
 62
     7
420
 16777215
370
    18
100
AcDbVertex
100
AcDb2dVertex
 10
186.2171800915515
 20
160.8512698094554
 30
0.0
  0
VERTEX
  5
9D
330
9B
100
AcDbEntity
  8
Livello 1
 62
     7
420
 16777215
370
    18
100
AcDbVertex
100
AcDb2dVertex
 10
186.2171800915515
 20
193.046397377159
 30
0.0
  0
SEQEND
  5
9E
330
9B
100
AcDbEntity
  8
Livello 1
370
    18
  0
POLYLINE
  5
9F
330
1F
100
AcDbEntity
  8
Livello 1
 62
     7
420
 16777215
370
    18
100
AcDb2dPolyline
 66
     1
 10
0.0
 20
0.0
 30
0.0
  0
VERTEX
  5
A0
330
9F
100
AcDbEntity
  8
Livello 1
 62
     7
420
 16777215
370
    18
100
AcDbVertex
100
AcDb2dVertex
 10
186.2171800915515
 20
160.8512698094554
 30
0.0
  0
VERTEX
  5
A1
330
9F
100
AcDbEntity
  8
Livello 1
 62
     7
420
 16777215
370
    18
100
AcDbVertex
100
AcDb2dVertex
 10
186.2171800915515
 20
154.9067536280925
 30
0.0
  0
SEQEND
  5
A2
330
9F
100
AcDbEntity
  8
Livello 1
370
    18
  0
POLYLINE
  5
A3
330
1F
100
AcDbEntity
  8
Livello 1
 62
     7
420
 16777215
370
    18
100
AcDb2dPolyline
 66
     1
 10
0.0
 20
0.0
 30
0.0
  0
VERTEX
  5
A4
330
A3
100
AcDbEntity
  8
Livello 1
 62
     7
420
 16777215
370
    18
100
AcDbVertex
100
AcDb2dVertex
 10
167.3208188891317
 20
193.046397377159
 30
0.0
  0
VERTEX
  5
A5
330
A3
100
AcDbEntity
  8
Livello 1
 62
     7
420
 16777215
370
    18
100
AcDbVertex
100
AcDb2dVertex
 10
187.1414998200127
 20
193.046397377159
 30
0.0
  0
SEQEND
  5
A6
330
A3
100
AcDbEntity
  8
Livello 1
370
    18
  0
POLYLINE
  5
A7
330
1F
100
AcDbEntity
  8
Livello 1
 62
     7
420
 16777215
370
    18
100
AcDb2dPolyline
 66
     1
 10
0.0
 20
0.0
 30
0.0
  0
VERTEX
  5
A8
330
A7
100
AcDbEntity
  8
Livello 1
 62
     7
420
 16777215
370
    18
100
AcDbVertex
100
AcDb2dVertex
 10
167.7497335599979
 20
160.8512698094554
 30
0.0
  0
VERTEX
  5
A9
330
A7
100
AcDbEntity
  8
Livello 1
 62
     7
420
 16777215
370
    18
100
AcDbVertex
100
AcDb2dVertex
 10
194.3024800197119
 20
160.8512698094554
 30
0.0
  0
SEQEND
  5
AA
330
A7
100
AcDbEntity
  8
Livello 1
370
    18
  0
POLYLINE
  5
AB
330
1F
100
AcDbEntity
  8
Livello 1
 62
     7
420
 16777215
370
    18
100
AcDb2dPolyline
 66
     1
 10
0.0
 20
0.0
 30
0.0
  0
VERTEX
  5
AC
330
AB
100
AcDbEntity
  8
Livello 1
 62
     7
420
 16777215
370
    18
100
AcDbVertex
100
AcDb2dVertex
 10
176.0121115129174
 20
176.9688151603034
 30
0.0
  0
VERTEX
  5
AD
330
AB
100
AcDbEntity
  8
Livello 1
 62
     7
420
 16777215
370
    18
100
AcDbVertex
100
AcDb2dVertex
 10
176.0121115129174
 20
180.3705046865148
 30
0.0
  0
SEQEND
  5
AE
330
AB
100
AcDbEntity
  8
Livello 1
370
    18
  0
POLYLINE
  5
AF
330
1F
100
AcDbEntity
  8
Livello 1
 62
     7
420
 16777215
370
    18
100
AcDb2dPolyline
 66
     1
 10
0.0
 20
0.0
 30
0.0
  0
VERTEX
  5
B0
330
AF
100
AcDbEntity
  8
Livello 1
 62
     7
420
 16777215
370
    18
100
AcDbVertex
100
AcDb2dVertex
 10
180.6357772138778
 20
183.7060483357733
 30
0.0
  0
VERTEX
  5
B1
330
AF
100
AcDbEntity
  8
Livello 1
 62
     7
420
 16777215
370
    18
100
AcDbVertex
100
AcDb2dVertex
 10
180.6357772138778
 20
183.045623095572
 30
0.0
  0
SEQEND
  5
B2
330
AF
100
AcDbEntity
  8
Livello 1
370
    18
  0
POLYLINE
  5
B3
330
1F
100
AcDbEntity
  8
Livello 1
 62
     7
420
 16777215
370
    18
100
AcDb2dPolyline
 66
     1
 10
0.0
 20
0.0
 30
0.0
  0
VERTEX
  5
B4
330
B3
100
AcDbEntity
  8
Livello 1
 62
     7
420
 16777215
370
    18
100
AcDbVertex
100
AcDb2dVertex
 10
172.0819439906348
 20
183.7060483357733
 30
0.0
  0
VERTEX
  5
B5
330
B3
100
AcDbEntity
  8
Livello 1
 62
     7
420
 16777215
370
    18
100
AcDbVertex
100
AcDb2dVertex
 10
180.6357772138778
 20
183.7060483357733
 30
0.0
  0
SEQEND
  5
B6
330
B3
100
AcDbEntity
  8
Livello 1
370
    18
  0
POLYLINE
  5
B7
330
1F
100
AcDbEntity
  8
Livello 1
 62
     7
420
 16777215
370
    18
100
AcDb2dPolyline
 66
     1
 10
0.0
 20
0.0
 30
0.0
  0
VERTEX
  5
B8
330
B7
100
AcDbEntity
  8
Livello 1
 62
     7
420
 16777215
370
    18
100
AcDbVertex
100
AcDb2dVertex
 10
172.0819439906348
 20
183.045623095572
 30
0.0
  0
VERTEX
  5
B9
330
B7
100
AcDbEntity
  8
Livello 1
 62
     7
420
 16777215
370
    18
100
AcDbVertex
100
AcDb2dVertex
 10
172.0819439906348
 20
183.7060483357733
 30
0.0
  0
SEQEND
  5
BA
330
B7
100
AcDbEntity
  8
Livello 1
370
    18
  0
POLYLINE
  5
BB
330
1F
100
AcDbEntity
  8
Livello 1
 62
     7
420
 16777215
370
    18
100
AcDb2dPolyline
 66
     1
 10
0.0
 20
0.0
 30
0.0
  0
VERTEX
  5
BC
330
BB
100
AcDbEntity
  8
Livello 1
 62
     7
420
 16777215
370
    18
100
AcDbVertex
100
AcDb2dVertex
 10
180.6357772138778
 20
169.6049187026603
 30
0.0
  0
VERTEX
  5
BD
330
BB
100
AcDbEntity
  8
Livello 1
 62
     7
420
 16777215
370
    18
100
AcDbVertex
100
AcDb2dVertex
 10
180.6357772138778
 20
170.2655161977494
 30
0.0
  0
SEQEND
  5
BE
330
BB
100
AcDbEntity
  8
Livello 1
370
    18
  0
POLYLINE
  5
BF
330
1F
100
AcDbEntity
  8
Livello 1
 62
     7
420
 16777215
370
    18
100
AcDb2dPolyline
 66
     1
 10
0.0
 20
0.0
 30
0.0
  0
VERTEX
  5
C0
330
BF
100
AcDbEntity
  8
Livello 1
 62
     7
420
 16777215
370
    18
100
AcDbVertex
100
AcDb2dVertex
 10
172.0819439906348
 20
169.6049187026603
 30
0.0
  0
VERTEX
  5
C1
330
BF
100
AcDbEntity
  8
Livello 1
 62
     7
420
 16777215
370
    18
100
AcDbVertex
100
AcDb2dVertex
 10
180.6357772138778
 20
169.6049187026603
 30
0.0
  0
SEQEND
  5
C2
330
BF
100
AcDbEntity
  8
Livello 1
370
    18
  0
POLYLINE
  5
C3
330
1F
100
AcDbEntity
  8
Livello 1
 62
     7
420
 16777215
370
    18
100
AcDb2dPolyline
 66
     1
 10
0.0
 20
0.0
 30
0.0
  0
VERTEX
  5
C4
330
C3
100
AcDbEntity
  8
Livello 1
 62
     7
420
 16777215
370
    18
100
AcDbVertex
100
AcDb2dVertex
 10
172.0819439906348
 20
170.2655161977494
 30
0.0
  0
VERTEX
  5
C5
330
C3
100
AcDbEntity
  8
Livello 1
 62
     7
420
 16777215
370
    18
100
AcDbVertex
100
AcDb2dVertex
 10
172.0819439906348
 20
169.6049187026603
 30
0.0
  0
SEQEND
  5
C6
330
C3
100
AcDbEntity
  8
Livello 1
370
    18
  0
MTEXT
  5
C7
330
1F
100
AcDbEntity
  8
Livello 1
 62
     7
420
 16777215
100
AcDbMText
 10
193.8870012301017
 20
212.5206737284769
 30
0.0
 40
2.970735586248451
 41
0.0
 71
     7
 72
     1
  1
\fCentury Gothic|b0|i0|c0|p34;\W1.0003; 
 11
-4.371139000186241E-8
 21
0.999999999999999
 31
0.0
 73
     1
 44
1.0
  0
MTEXT
  5
C8
330
1F
100
AcDbEntity
  8
Livello 1
 62
     7
420
 16777215
100
AcDbMText
 10
191.4699206431157
 20
211.1922440330069
 30
0.0
 40
2.970735586248451
 41
0.0
 71
     7
 72
     1
  1
\fCentury Gothic|b0|i0|c0|p34;\W1.0003;max 200\U+201D
 11
-4.371139000186241E-8
 21
0.999999999999999
 31
0.0
 73
     1
 44
1.0
  0
MTEXT
  5
C9
330
1F
100
AcDbEntity
  8
Livello 1
 62
     7
420
 16777215
100
AcDbMText
 10
185.9532856032917
 20
211.1922440330069
 30
0.0
 40
2.970735586248451
 41
0.0
 71
     7
 72
     1
  1
\fCentury Gothic|b0|i0|c0|p34;\W1.0003;max 200
 11
-4.371139000186241E-8
 21
0.999999999999999
 31
0.0
 73
     1
 44
1.0
  0
POLYLINE
  5
CA
330
1F
100
AcDbEntity
  8
Livello 1
 62
     7
420
 16777215
370
    18
100
AcDb2dPolyline
 66
     1
 10
0.0
 20
0.0
 30
0.0
  0
VERTEX
  5
CB
330
CA
100
AcDbEntity
  8
Livello 1
 62
     7
420
 16777215
370
    18
100
AcDbVertex
100
AcDb2dVertex
 10
194.6328648947004
 20
253.2010770740401
 30
0.0
  0
VERTEX
  5
CC
330
CA
100
AcDbEntity
  8
Livello 1
 62
     7
420
 16777215
370
    18
100
AcDbVertex
100
AcDb2dVertex
 10
194.3024800197119
 20
249.8653611698938
 30
0.0
  0
SEQEND
  5
CD
330
CA
100
AcDbEntity
  8
Livello 1
370
    18
  0
POLYLINE
  5
CE
330
1F
100
AcDbEntity
  8
Livello 1
 62
     7
420
 16777215
370
    18
100
AcDb2dPolyline
 66
     1
 10
0.0
 20
0.0
 30
0.0
  0
VERTEX
  5
CF
330
CE
100
AcDbEntity
  8
Livello 1
 62
     7
420
 16777215
370
    18
100
AcDbVertex
100
AcDb2dVertex
 10
193.9393667160227
 20
253.2010770740401
 30
0.0
  0
VERTEX
  5
D0
330
CE
100
AcDbEntity
  8
Livello 1
 62
     7
420
 16777215
370
    18
100
AcDbVertex
100
AcDb2dVertex
 10
194.6328648947004
 20
253.2010770740401
 30
0.0
  0
SEQEND
  5
D1
330
CE
100
AcDbEntity
  8
Livello 1
370
    18
  0
POLYLINE
  5
D2
330
1F
100
AcDbEntity
  8
Livello 1
 62
     7
420
 16777215
370
    18
100
AcDb2dPolyline
 66
     1
 10
0.0
 20
0.0
 30
0.0
  0
VERTEX
  5
D3
330
D2
100
AcDbEntity
  8
Livello 1
 62
     7
420
 16777215
370
    18
100
AcDbVertex
100
AcDb2dVertex
 10
194.3024800197119
 20
249.8653611698938
 30
0.0
  0
VERTEX
  5
D4
330
D2
100
AcDbEntity
  8
Livello 1
 62
     7
420
 16777215
370
    18
100
AcDbVertex
100
AcDb2dVertex
 10
193.9393667160227
 20
253.2010770740401
 30
0.0
  0
SEQEND
  5
D5
330
D2
100
AcDbEntity
  8
Livello 1
370
    18
  0
POLYLINE
  5
D6
330
1F
100
AcDbEntity
  8
Livello 1
 62
     7
420
 16777215
370
    18
100
AcDb2dPolyline
 66
     1
 10
0.0
 20
0.0
 30
0.0
  0
VERTEX
  5
D7
330
D6
100
AcDbEntity
  8
Livello 1
 62
     7
420
 16777215
370
    18
100
AcDbVertex
100
AcDb2dVertex
 10
193.9393667160227
 20
157.5157261601969
 30
0.0
  0
VERTEX
  5
D8
330
D6
100
AcDbEntity
  8
Livello 1
 62
     7
420
 16777215
370
    18
100
AcDbVertex
100
AcDb2dVertex
 10
194.3024800197119
 20
160.8512698094554
 30
0.0
  0
SEQEND
  5
D9
330
D6
100
AcDbEntity
  8
Livello 1
370
    18
  0
POLYLINE
  5
DA
330
1F
100
AcDbEntity
  8
Livello 1
 62
     7
420
 16777215
370
    18
100
AcDb2dPolyline
 66
     1
 10
0.0
 20
0.0
 30
0.0
  0
VERTEX
  5
DB
330
DA
100
AcDbEntity
  8
Livello 1
 62
     7
420
 16777215
370
    18
100
AcDbVertex
100
AcDb2dVertex
 10
194.6328648947004
 20
157.5157261601969
 30
0.0
  0
VERTEX
  5
DC
330
DA
100
AcDbEntity
  8
Livello 1
 62
     7
420
 16777215
370
    18
100
AcDbVertex
100
AcDb2dVertex
 10
193.9393667160227
 20
157.5157261601969
 30
0.0
  0
SEQEND
  5
DD
330
DA
100
AcDbEntity
  8
Livello 1
370
    18
  0
POLYLINE
  5
DE
330
1F
100
AcDbEntity
  8
Livello 1
 62
     7
420
 16777215
370
    18
100
AcDb2dPolyline
 66
     1
 10
0.0
 20
0.0
 30
0.0
  0
VERTEX
  5
DF
330
DE
100
AcDbEntity
  8
Livello 1
 62
     7
420
 16777215
370
    18
100
AcDbVertex
100
AcDb2dVertex
 10
194.3024800197119
 20
160.8512698094554
 30
0.0
  0
VERTEX
  5
E0
330
DE
100
AcDbEntity
  8
Livello 1
 62
     7
420
 16777215
370
    18
100
AcDbVertex
100
AcDb2dVertex
 10
194.6328648947004
 20
157.5157261601969
 30
0.0
  0
SEQEND
  5
E1
330
DE
100
AcDbEntity
  8
Livello 1
370
    18
  0
POLYLINE
  5
E2
330
1F
100
AcDbEntity
  8
Livello 1
 62
     7
420
 16777215
370
    18
100
AcDb2dPolyline
 66
     1
 10
0.0
 20
0.0
 30
0.0
  0
VERTEX
  5
E3
330
E2
100
AcDbEntity
  8
Livello 1
 62
     7
420
 16777215
370
    18
100
AcDbVertex
100
AcDb2dVertex
 10
194.3024800197119
 20
249.8653611698938
 30
0.0
  0
VERTEX
  5
E4
330
E2
100
AcDbEntity
  8
Livello 1
 62
     7
420
 16777215
370
    18
100
AcDbVertex
100
AcDb2dVertex
 10
194.3024800197119
 20
255.8100496061445
 30
0.0
  0
SEQEND
  5
E5
330
E2
100
AcDbEntity
  8
Livello 1
370
    18
  0
POLYLINE
  5
E6
330
1F
100
AcDbEntity
  8
Livello 1
 62
     7
420
 16777215
370
    18
100
AcDb2dPolyline
 66
     1
 10
0.0
 20
0.0
 30
0.0
  0
VERTEX
  5
E7
330
E6
100
AcDbEntity
  8
Livello 1
 62
     7
420
 16777215
370
    18
100
AcDbVertex
100
AcDb2dVertex
 10
194.3024800197119
 20
160.8512698094554
 30
0.0
  0
VERTEX
  5
E8
330
E6
100
AcDbEntity
  8
Livello 1
 62
     7
420
 16777215
370
    18
100
AcDbVertex
100
AcDb2dVertex
 10
194.3024800197119
 20
249.8653611698938
 30
0.0
  0
SEQEND
  5
E9
330
E6
100
AcDbEntity
  8
Livello 1
370
    18
  0
POLYLINE
  5
EA
330
1F
100
AcDbEntity
  8
Livello 1
 62
     7
420
 16777215
370
    18
100
AcDb2dPolyline
 66
     1
 10
0.0
 20
0.0
 30
0.0
  0
VERTEX
  5
EB
330
EA
100
AcDbEntity
  8
Livello 1
 62
     7
420
 16777215
370
    18
100
AcDbVertex
100
AcDb2dVertex
 10
194.3024800197119
 20
160.8512698094554
 30
0.0
  0
VERTEX
  5
EC
330
EA
100
AcDbEntity
  8
Livello 1
 62
     7
420
 16777215
370
    18
100
AcDbVertex
100
AcDb2dVertex
 10
194.3024800197119
 20
154.9067536280925
 30
0.0
  0
SEQEND
  5
ED
330
EA
100
AcDbEntity
  8
Livello 1
370
    18
  0
POLYLINE
  5
EE
330
1F
100
AcDbEntity
  8
Livello 1
 62
     7
420
 16777215
370
    18
100
AcDb2dPolyline
 66
     1
 10
0.0
 20
0.0
 30
0.0
  0
VERTEX
  5
EF
330
EE
100
AcDbEntity
  8
Livello 1
 62
     7
420
 16777215
370
    18
100
AcDbVertex
100
AcDb2dVertex
 10
167.3208188891317
 20
249.8653611698938
 30
0.0
  0
VERTEX
  5
F0
330
EE
100
AcDbEntity
  8
Livello 1
 62
     7
420
 16777215
370
    18
100
AcDbVertex
100
AcDb2dVertex
 10
195.226799748173
 20
249.8653611698938
 30
0.0
  0
SEQEND
  5
F1
330
EE
100
AcDbEntity
  8
Livello 1
370
    18
  0
POLYLINE
  5
F2
330
1F
100
AcDbEntity
  8
Livello 1
 62
     7
420
 16777215
370
    18
100
AcDb2dPolyline
 66
     1
 10
0.0
 20
0.0
 30
0.0
  0
VERTEX
  5
F3
330
F2
100
AcDbEntity
  8
Livello 1
 62
     7
420
 16777215
370
    18
100
AcDbVertex
100
AcDb2dVertex
 10
195.226799748173
 20
160.8512698094554
 30
0.0
  0
VERTEX
  5
155
330
F2
100
AcDbEntity
  8
0
100
AcDbVertex
100
AcDb2dVertex
 10
195.226799748173
 20
160.8512698094554
 30
0.0
  0
SEQEND
  5
F4
330
F2
100
AcDbEntity
  8
Livello 1
370
    18
  0
POLYLINE
  5
F5
330
1F
100
AcDbEntity
  8
Livello 1
 62
     7
420
 16777215
370
    18
100
AcDb2dPolyline
 66
     1
 10
0.0
 20
0.0
 30
0.0
  0
VERTEX
  5
F6
330
F5
100
AcDbEntity
  8
Livello 1
 62
     7
420
 16777215
370
    18
100
AcDbVertex
100
AcDb2dVertex
 10
191.2590806603285
 20
160.8512698094554
 30
0.0
  0
VERTEX
  5
156
330
F5
100
AcDbEntity
  8
0
100
AcDbVertex
100
AcDb2dVertex
 10
191.2590806603285
 20
160.8512698094554
 30
0.0
  0
SEQEND
  5
F7
330
F5
100
AcDbEntity
  8
Livello 1
370
    18
  0
MTEXT
  5
F8
330
1F
100
AcDbEntity
  8
Livello 1
 62
     7
420
 16777215
100
AcDbMText
 10
85.32680323009191
 20
139.5330048831885
 30
0.0
 40
2.970735586248451
 41
0.0
 71
     7
 72
     1
  1
\fCentury Gothic|b0|i0|c0|p34;\W1.0003; 
 11
0.9999999982000001
 21
5.999999844827251E-5
 31
0.0
 73
     1
 44
1.0
  0
INSERT
  5
FA
330
1F
100
AcDbEntity
  8
Livello 1
100
AcDbBlockReference
  2
block 2
 10
0.0
 20
0.0
 30
0.0
  0
INSERT
  5
FF
330
1F
100
AcDbEntity
  8
Livello 1
100
AcDbBlockReference
  2
block 3
 10
0.0
 20
0.0
 30
0.0
  0
INSERT
  5
104
330
1F
100
AcDbEntity
  8
Livello 1
100
AcDbBlockReference
  2
block 4
 10
0.0
 20
0.0
 30
0.0
  0
MTEXT
  5
108
330
1F
100
AcDbEntity
  8
Livello 1
 62
     7
420
 16777215
100
AcDbMText
 10
98.40077696666863
 20
146.3226035445794
 30
0.0
 40
2.970735586248451
 41
0.0
 71
     7
 72
     1
  1
\fCentury Gothic|b0|i0|c0|p34;\W1.00121;"
 11
0.9999999982000001
 21
5.999999844827251E-5
 31
0.0
 73
     1
 44
1.0
  0
INSERT
  5
10A
330
1F
100
AcDbEntity
  8
Livello 1
100
AcDbBlockReference
  2
block 5
 10
0.0
 20
0.0
 30
0.0
  0
MTEXT
  5
10E
330
1F
100
AcDbEntity
  8
Livello 1
 62
     7
420
 16777215
100
AcDbMText
 10
101.0426501823615
 20
139.5292152756548
 30
0.0
 40
2.970735586248451
 41
0.0
 71
     7
 72
     1
  1
\fCentury Gothic|b0|i0|c0|p34;\W1.0003; 
 11
0.9999999982000001
 21
5.999999844827251E-5
 31
0.0
 73
     1
 44
1.0
  0
POLYLINE
  5
10F
330
1F
100
AcDbEntity
  8
Livello 1
 62
     7
420
 16777215
370
    18
100
AcDb2dPolyline
 66
     1
 10
0.0
 20
0.0
 30
0.0
  0
VERTEX
  5
110
330
10F
100
AcDbEntity
  8
Livello 1
 62
     7
420
 16777215
370
    18
100
AcDbVertex
100
AcDb2dVertex
 10
160.3844590632516
 20
137.2761213419478
 30
0.0
  0
VERTEX
  5
111
330
10F
100
AcDbEntity
  8
Livello 1
 62
     7
420
 16777215
370
    18
100
AcDbVertex
100
AcDb2dVertex
 10
163.7196582027343
 20
136.9130080382587
 30
0.0
  0
SEQEND
  5
112
330
10F
100
AcDbEntity
  8
Livello 1
370
    18
  0
POLYLINE
  5
113
330
1F
100
AcDbEntity
  8
Livello 1
 62
     7
420
 16777215
370
    18
100
AcDb2dPolyline
 66
     1
 10
0.0
 20
0.0
 30
0.0
  0
VERTEX
  5
114
330
113
100
AcDbEntity
  8
Livello 1
 62
     7
420
 16777215
370
    18
100
AcDbVertex
100
AcDb2dVertex
 10
160.3844590632516
 20
136.5826231632701
 30
0.0
  0
VERTEX
  5
115
330
113
100
AcDbEntity
  8
Livello 1
 62
     7
420
 16777215
370
    18
100
AcDbVertex
100
AcDb2dVertex
 10
160.3844590632516
 20
137.2761213419478
 30
0.0
  0
SEQEND
  5
116
330
113
100
AcDbEntity
  8
Livello 1
370
    18
  0
POLYLINE
  5
117
330
1F
100
AcDbEntity
  8
Livello 1
 62
     7
420
 16777215
370
    18
100
AcDb2dPolyline
 66
     1
 10
0.0
 20
0.0
 30
0.0
  0
VERTEX
  5
118
330
117
100
AcDbEntity
  8
Livello 1
 62
     7
420
 16777215
370
    18
100
AcDbVertex
100
AcDb2dVertex
 10
163.7196582027343
 20
136.9130080382587
 30
0.0
  0
VERTEX
  5
119
330
117
100
AcDbEntity
  8
Livello 1
 62
     7
420
 16777215
370
    18
100
AcDbVertex
100
AcDb2dVertex
 10
160.3844590632516
 20
136.5826231632701
 30
0.0
  0
SEQEND
  5
11A
330
117
100
AcDbEntity
  8
Livello 1
370
    18
  0
POLYLINE
  5
11B
330
1F
100
AcDbEntity
  8
Livello 1
 62
     7
420
 16777215
370
    18
100
AcDb2dPolyline
 66
     1
 10
0.0
 20
0.0
 30
0.0
  0
VERTEX
  5
11C
330
11B
100
AcDbEntity
  8
Livello 1
 62
     7
420
 16777215
370
    18
100
AcDbVertex
100
AcDb2dVertex
 10
22.15973005364907
 20
136.5498947345695
 30
0.0
  0
VERTEX
  5
11D
330
11B
100
AcDbEntity
  8
Livello 1
 62
     7
420
 16777215
370
    18
100
AcDbVertex
100
AcDb2dVertex
 10
18.82435865927846
 20
136.9130080382587
 30
0.0
  0
SEQEND
  5
11E
330
11B
100
AcDbEntity
  8
Livello 1
370
    18
  0
POLYLINE
  5
11F
330
1F
100
AcDbEntity
  8
Livello 1
 62
     7
420
 16777215
370
    18
100
AcDb2dPolyline
 66
     1
 10
0.0
 20
0.0
 30
0.0
  0
VERTEX
  5
120
330
11F
100
AcDbEntity
  8
Livello 1
 62
     7
420
 16777215
370
    18
100
AcDbVertex
100
AcDb2dVertex
 10
22.15973005364907
 20
137.2761213419478
 30
0.0
  0
VERTEX
  5
121
330
11F
100
AcDbEntity
  8
Livello 1
 62
     7
420
 16777215
370
    18
100
AcDbVertex
100
AcDb2dVertex
 10
22.15973005364907
 20
136.5498947345695
 30
0.0
  0
SEQEND
  5
122
330
11F
100
AcDbEntity
  8
Livello 1
370
    18
  0
POLYLINE
  5
123
330
1F
100
AcDbEntity
  8
Livello 1
 62
     7
420
 16777215
370
    18
100
AcDb2dPolyline
 66
     1
 10
0.0
 20
0.0
 30
0.0
  0
VERTEX
  5
124
330
123
100
AcDbEntity
  8
Livello 1
 62
     7
420
 16777215
370
    18
100
AcDbVertex
100
AcDb2dVertex
 10
18.82435865927846
 20
136.9130080382587
 30
0.0
  0
VERTEX
  5
125
330
123
100
AcDbEntity
  8
Livello 1
 62
     7
420
 16777215
370
    18
100
AcDbVertex
100
AcDb2dVertex
 10
22.15973005364907
 20
137.2761213419478
 30
0.0
  0
SEQEND
  5
126
330
123
100
AcDbEntity
  8
Livello 1
370
    18
  0
POLYLINE
  5
127
330
1F
100
AcDbEntity
  8
Livello 1
 62
     7
420
 16777215
370
    18
100
AcDb2dPolyline
 66
     1
 10
0.0
 20
0.0
 30
0.0
  0
VERTEX
  5
128
330
127
100
AcDbEntity
  8
Livello 1
 62
     7
420
 16777215
370
    18
100
AcDbVertex
100
AcDb2dVertex
 10
18.82435865927846
 20
136.9130080382587
 30
0.0
  0
VERTEX
  5
129
330
127
100
AcDbEntity
  8
Livello 1
 62
     7
420
 16777215
370
    18
100
AcDbVertex
100
AcDb2dVertex
 10
163.7196582027343
 20
136.9130080382587
 30
0.0
  0
SEQEND
  5
12A
330
127
100
AcDbEntity
  8
Livello 1
370
    18
  0
POLYLINE
  5
12B
330
1F
100
AcDbEntity
  8
Livello 1
 62
     7
420
 16777215
370
    18
100
AcDb2dPolyline
 66
     1
 10
0.0
 20
0.0
 30
0.0
  0
VERTEX
  5
12C
330
12B
100
AcDbEntity
  8
Livello 1
 62
     7
420
 16777215
370
    18
100
AcDbVertex
100
AcDb2dVertex
 10
163.7196582027343
 20
157.7052065368848
 30
0.0
  0
VERTEX
  5
12D
330
12B
100
AcDbEntity
  8
Livello 1
 62
     7
420
 16777215
370
    18
100
AcDbVertex
100
AcDb2dVertex
 10
163.7196582027343
 20
135.9886883097975
 30
0.0
  0
SEQEND
  5
12E
330
12B
100
AcDbEntity
  8
Livello 1
370
    18
  0
POLYLINE
  5
12F
330
1F
100
AcDbEntity
  8
Livello 1
 62
     7
420
 16777215
370
    18
100
AcDb2dPolyline
 66
     1
 10
0.0
 20
0.0
 30
0.0
  0
VERTEX
  5
130
330
12F
100
AcDbEntity
  8
Livello 1
 62
     7
420
 16777215
370
    18
100
AcDbVertex
100
AcDb2dVertex
 10
18.82453091416636
 20
157.7052065368848
 30
0.0
  0
VERTEX
  5
131
330
12F
100
AcDbEntity
  8
Livello 1
 62
     7
420
 16777215
370
    18
100
AcDbVertex
100
AcDb2dVertex
 10
18.82435865927846
 20
135.9886883097975
 30
0.0
  0
SEQEND
  5
132
330
12F
100
AcDbEntity
  8
Livello 1
370
    18
  0
POLYLINE
  5
133
330
1F
100
AcDbEntity
  8
Livello 1
 62
     7
420
 16777215
370
    18
100
AcDb2dPolyline
 66
     1
 10
0.0
 20
0.0
 30
0.0
  0
VERTEX
  5
134
330
133
100
AcDbEntity
  8
Livello 1
 62
     7
420
 16777215
370
    18
100
AcDbVertex
100
AcDb2dVertex
 10
92.99920819196049
 20
148.08614908688
 30
0.0
  0
VERTEX
  5
157
330
133
100
AcDbEntity
  8
0
100
AcDbVertex
100
AcDb2dVertex
 10
92.99920819196049
 20
148.08614908688
 30
0.0
  0
SEQEND
  5
135
330
133
100
AcDbEntity
  8
Livello 1
370
    18
  0
POLYLINE
  5
136
330
1F
100
AcDbEntity
  8
Livello 1
 62
     7
420
 16777215
370
    18
100
AcDb2dPolyline
 66
     1
 10
0.0
 20
0.0
 30
0.0
  0
VERTEX
  5
137
330
136
100
AcDbEntity
  8
Livello 1
 62
     7
420
 16777215
370
    18
100
AcDbVertex
100
AcDb2dVertex
 10
89.59769092063702
 20
148.08614908688
 30
0.0
  0
VERTEX
  5
158
330
136
100
AcDbEntity
  8
0
100
AcDbVertex
100
AcDb2dVertex
 10
89.59769092063702
 20
148.08614908688
 30
0.0
  0
SEQEND
  5
138
330
136
100
AcDbEntity
  8
Livello 1
370
    18
  0
POLYLINE
  5
139
330
1F
100
AcDbEntity
  8
Livello 1
 62
     7
420
 16777215
370
    18
100
AcDb2dPolyline
 66
     1
 10
0.0
 20
0.0
 30
0.0
  0
VERTEX
  5
13A
330
139
100
AcDbEntity
  8
Livello 1
 62
     7
420
 16777215
370
    18
100
AcDbVertex
100
AcDb2dVertex
 10
100.5474173796545
 20
143.4624833859196
 30
0.0
  0
VERTEX
  5
13B
330
139
100
AcDbEntity
  8
Livello 1
 62
     7
420
 16777215
370
    18
100
AcDbVertex
100
AcDb2dVertex
 10
99.85409145586476
 20
143.4624833859196
 30
0.0
  0
SEQEND
  5
13C
330
139
100
AcDbEntity
  8
Livello 1
370
    18
  0
POLYLINE
  5
13D
330
1F
100
AcDbEntity
  8
Livello 1
 62
     7
420
 16777215
370
    18
100
AcDb2dPolyline
 66
     1
 10
0.0
 20
0.0
 30
0.0
  0
VERTEX
  5
13E
330
13D
100
AcDbEntity
  8
Livello 1
 62
     7
420
 16777215
370
    18
100
AcDbVertex
100
AcDb2dVertex
 10
100.514516696066
 20
152.0163166091627
 30
0.0
  0
VERTEX
  5
13F
330
13D
100
AcDbEntity
  8
Livello 1
 62
     7
420
 16777215
370
    18
100
AcDbVertex
100
AcDb2dVertex
 10
100.5474173796545
 20
143.4624833859196
 30
0.0
  0
SEQEND
  5
140
330
13D
100
AcDbEntity
  8
Livello 1
370
    18
  0
POLYLINE
  5
141
330
1F
100
AcDbEntity
  8
Livello 1
 62
     7
420
 16777215
370
    18
100
AcDb2dPolyline
 66
     1
 10
0.0
 20
0.0
 30
0.0
  0
VERTEX
  5
142
330
141
100
AcDbEntity
  8
Livello 1
 62
     7
420
 16777215
370
    18
100
AcDbVertex
100
AcDb2dVertex
 10
99.85409145586476
 20
152.0163166091627
 30
0.0
  0
VERTEX
  5
143
330
141
100
AcDbEntity
  8
Livello 1
 62
     7
420
 16777215
370
    18
100
AcDbVertex
100
AcDb2dVertex
 10
100.514516696066
 20
152.0163166091627
 30
0.0
  0
SEQEND
  5
144
330
141
100
AcDbEntity
  8
Livello 1
370
    18
  0
POLYLINE
  5
145
330
1F
100
AcDbEntity
  8
Livello 1
 62
     7
420
 16777215
370
    18
100
AcDb2dPolyline
 66
     1
 10
0.0
 20
0.0
 30
0.0
  0
VERTEX
  5
146
330
145
100
AcDbEntity
  8
Livello 1
 62
     7
420
 16777215
370
    18
100
AcDbVertex
100
AcDb2dVertex
 10
87.0274757383097
 20
143.4624833859196
 30
0.0
  0
VERTEX
  5
147
330
145
100
AcDbEntity
  8
Livello 1
 62
     7
420
 16777215
370
    18
100
AcDbVertex
100
AcDb2dVertex
 10
87.68790097851095
 20
143.4624833859196
 30
0.0
  0
SEQEND
  5
148
330
145
100
AcDbEntity
  8
Livello 1
370
    18
  0
POLYLINE
  5
149
330
1F
100
AcDbEntity
  8
Livello 1
 62
     7
420
 16777215
370
    18
100
AcDb2dPolyline
 66
     1
 10
0.0
 20
0.0
 30
0.0
  0
VERTEX
  5
14A
330
149
100
AcDbEntity
  8
Livello 1
 62
     7
420
 16777215
370
    18
100
AcDbVertex
100
AcDb2dVertex
 10
87.0274757383097
 20
152.0163166091627
 30
0.0
  0
VERTEX
  5
14B
330
149
100
AcDbEntity
  8
Livello 1
 62
     7
420
 16777215
370
    18
100
AcDbVertex
100
AcDb2dVertex
 10
87.0274757383097
 20
143.4624833859196
 30
0.0
  0
SEQEND
  5
14C
330
149
100
AcDbEntity
  8
Livello 1
370
    18
  0
POLYLINE
  5
14D
330
1F
100
AcDbEntity
  8
Livello 1
 62
     7
420
 16777215
370
    18
100
AcDb2dPolyline
 66
     1
 10
0.0
 20
0.0
 30
0.0
  0
VERTEX
  5
14E
330
14D
100
AcDbEntity
  8
Livello 1
 62
     7
420
 16777215
370
    18
100
AcDbVertex
100
AcDb2dVertex
 10
87.68790097851095
 20
152.0163166091627
 30
0.0
  0
VERTEX
  5
14F
330
14D
100
AcDbEntity
  8
Livello 1
 62
     7
420
 16777215
370
    18
100
AcDbVertex
100
AcDb2dVertex
 10
87.0274757383097
 20
152.0163166091627
 30
0.0
  0
SEQEND
  5
150
330
14D
100
AcDbEntity
  8
Livello 1
370
    18
  0
POLYLINE
  5
151
330
1F
100
AcDbEntity
  8
Livello 1
 62
     7
420
 16777215
370
     9
100
AcDb2dPolyline
 66
     1
 10
0.0
 20
0.0
 30
0.0
  0
VERTEX
  5
152
330
151
100
AcDbEntity
  8
Livello 1
 62
     7
420
 16777215
370
     9
100
AcDbVertex
100
AcDb2dVertex
 10
94.30937886931332
 20
147.7457734283934
 30
0.0
  0
VERTEX
  5
153
330
151
100
AcDbEntity
  8
Livello 1
 62
     7
420
 16777215
370
     9
100
AcDbVertex
100
AcDb2dVertex
 10
97.19034186940878
 20
147.7457734283934
 30
0.0
  0
SEQEND
  5
154
330
151
100
AcDbEntity
  8
Livello 1
370
     9
  0
ENDSEC
  0
SECTION
  2
OBJECTS
  0
DICTIONARY
  5
C
330
0
100
AcDbDictionary
281
     1
  3
ACAD_GROUP
350
D
  3
ACAD_LAYOUT
350
1A
  3
ACAD_MLINESTYLE
350
17
  3
ACAD_PLOTSETTINGS
350
19
  3
ACAD_PLOTSTYLENAME
350
E
  3
ACAD_TABLESTYLE
350
159
  3
ACAD_VISUALSTYLE
350
2A
  0
DICTIONARY
  5
D
102
{ACAD_REACTORS
330
C
102
}
330
C
100
AcDbDictionary
281
     1
  0
DICTIONARY
  5
1A
102
{ACAD_REACTORS
330
C
102
}
330
C
100
AcDbDictionary
281
     1
  3
Layout1
350
1E
  3
Layout2
350
26
  3
Model
350
22
  0
DICTIONARY
  5
17
102
{ACAD_REACTORS
330
C
102
}
330
C
100
AcDbDictionary
281
     1
  3
Standard
350
18
  0
DICTIONARY
  5
19
102
{ACAD_REACTORS
330
C
102
}
330
C
100
AcDbDictionary
281
     1
  0
ACDBDICTIONARYWDFLT
  5
E
102
{ACAD_REACTORS
330
C
102
}
330
C
100
AcDbDictionary
281
     1
  3
Normal
350
F
100
AcDbDictionaryWithDefault
340
F
  0
DICTIONARY
  5
159
102
{ACAD_REACTORS
330
C
102
}
330
C
100
AcDbDictionary
281
     1
  0
DICTIONARY
  5
2A
102
{ACAD_REACTORS
330
C
102
}
330
C
100
AcDbDictionary
281
     1
  3
2dWireframe
350
2F
  3
3D Hidden
350
31
  3
3dWireframe
350
30
  3
Basic
350
32
  3
Brighten
350
36
  3
ColorChange
350
3A
  3
Conceptual
350
34
  3
Dim
350
35
  3
Facepattern
350
39
  3
Flat
350
2B
  3
FlatWithEdges
350
2C
  3
Gouraud
350
2D
  3
GouraudWithEdges
350
2E
  3
Linepattern
350
38
  3
Realistic
350
33
  3
Thicken
350
37
  0
LAYOUT
  5
1E
102
{ACAD_REACTORS
330
1A
102
}
330
1A
100
AcDbPlotSettings
  1

  2
none_device
  4

  6

 40
0.0
 41
0.0
 42
0.0
 43
0.0
 44
0.0
 45
0.0
 46
0.0
 47
0.0
 48
0.0
 49
0.0
140
0.0
141
0.0
142
1.0
143
1.0
 70
   688
 72
     0
 73
     0
 74
     5
  7

 75
    16
 76
     0
 77
     2
 78
   300
147
1.0
148
0.0
149
0.0
100
AcDbLayout
  1
Layout1
 70
     1
 71
     1
 10
0.0
 20
0.0
 11
12.0
 21
9.0
 12
0.0
 22
0.0
 32
0.0
 14
1.000000000000000E+20
 24
1.000000000000000E+20
 34
1.000000000000000E+20
 15
-1.000000000000000E+20
 25
-1.000000000000000E+20
 35
-1.000000000000000E+20
146
0.0
 13
0.0
 23
0.0
 33
0.0
 16
1.0
 26
0.0
 36
0.0
 17
0.0
 27
1.0
 37
0.0
 76
     0
330
1B
  0
LAYOUT
  5
26
102
{ACAD_REACTORS
330
1A
102
}
330
1A
100
AcDbPlotSettings
  1

  2
none_device
  4

  6

 40
0.0
 41
0.0
 42
0.0
 43
0.0
 44
0.0
 45
0.0
 46
0.0
 47
0.0
 48
0.0
 49
0.0
140
0.0
141
0.0
142
1.0
143
1.0
 70
   688
 72
     0
 73
     0
 74
     5
  7

 75
    16
 76
     0
 77
     2
 78
   300
147
1.0
148
0.0
149
0.0
100
AcDbLayout
  1
Layout2
 70
     1
 71
     2
 10
0.0
 20
0.0
 11
0.0
 21
0.0
 12
0.0
 22
0.0
 32
0.0
 14
0.0
 24
0.0
 34
0.0
 15
0.0
 25
0.0
 35
0.0
146
0.0
 13
0.0
 23
0.0
 33
0.0
 16
1.0
 26
0.0
 36
0.0
 17
0.0
 27
1.0
 37
0.0
 76
     0
330
23
  0
LAYOUT
  5
22
102
{ACAD_REACTORS
330
1A
102
}
330
1A
100
AcDbPlotSettings
  1

  2
none_device
  4

  6

 40
0.0
 41
0.0
 42
0.0
 43
0.0
 44
0.0
 45
0.0
 46
0.0
 47
0.0
 48
0.0
 49
0.0
140
0.0
141
0.0
142
1.0
143
1.0
 70
  1712
 72
     0
 73
     0
 74
     0
  7

 75
     0
 76
     0
 77
     2
 78
   300
147
1.0
148
0.0
149
0.0
100
AcDbLayout
  1
Model
 70
     1
 71
     0
 10
0.0
 20
0.0
 11
12.0
 21
9.0
 12
0.0
 22
0.0
 32
0.0
 14
1.000000000000000E+20
 24
1.000000000000000E+20
 34
1.000000000000000E+20
 15
-1.000000000000000E+20
 25
-1.000000000000000E+20
 35
-1.000000000000000E+20
146
0.0
 13
0.0
 23
0.0
 33
0.0
 16
1.0
 26
0.0
 36
0.0
 17
0.0
 27
1.0
 37
0.0
 76
     0
330
1F
331
29
  0
MLINESTYLE
  5
18
102
{ACAD_REACTORS
330
17
102
}
330
17
100
AcDbMlineStyle
  2
Standard
 70
     0
  3

 62
   256
 51
90.0
 52
90.0
 71
     2
 49
0.5
 62
   256
  6
BYLAYER
 49
-0.5
 62
   256
  6
BYLAYER
  0
ACDBPLACEHOLDER
  5
F
102
{ACAD_REACTORS
330
E
102
}
330
E
  0
VISUALSTYLE
  5
2F
102
{ACAD_REACTORS
330
2A
102
}
330
2A
100
AcDbVisualStyle
  2
2dWireframe
 70
     4
 71
     0
 72
     2
 73
     0
 90
        0
 40
-0.6
 41
-30.0
 62
     5
 63
     7
421
 16777215
 74
     1
 91
        4
 64
     7
 65
   257
 75
     1
175
     1
 42
1.0
 92
        0
 66
   257
 43
1.0
 76
     1
 77
     6
 78
     2
 67
     7
 79
     5
170
     0
171
     0
290
     0
174
     0
 93
        1
 44
0.0
173
     0
291
     0
 45
0.0
1001
ACAD
1000
AcDbSavedByObjectVersion
1070
     0
  0
VISUALSTYLE
  5
31
102
{ACAD_REACTORS
330
2A
102
}
330
2A
100
AcDbVisualStyle
  2
3D Hidden
 70
     6
 71
     1
 72
     2
 73
     2
 90
        0
 40
-0.6
 41
-30.0
 62
     5
 63
     7
421
 16777215
 74
     2
 91
        2
 64
     7
 65
   257
 75
     2
175
     1
 42
40.0
 92
        0
 66
   257
 43
1.0
 76
     1
 77
     6
 78
     2
 67
     7
 79
     3
170
     0
171
     0
290
     0
174
     0
 93
        1
 44
0.0
173
     0
291
     0
 45
0.0
1001
ACAD
1000
AcDbSavedByObjectVersion
1070
     0
  0
VISUALSTYLE
  5
30
102
{ACAD_REACTORS
330
2A
102
}
330
2A
100
AcDbVisualStyle
  2
3dWireframe
 70
     5
 71
     0
 72
     2
 73
     0
 90
        0
 40
-0.6
 41
-30.0
 62
     5
 63
     7
421
 16777215
 74
     1
 91
        4
 64
     7
 65
   257
 75
     1
175
     1
 42
1.0
 92
        0
 66
   257
 43
1.0
 76
     1
 77
     6
 78
     2
 67
     7
 79
     5
170
     0
171
     0
290
     0
174
     0
 93
        1
 44
0.0
173
     0
291
     0
 45
0.0
1001
ACAD
1000
AcDbSavedByObjectVersion
1070
     0
  0
VISUALSTYLE
  5
32
102
{ACAD_REACTORS
330
2A
102
}
330
2A
100
AcDbVisualStyle
  2
Basic
 70
     7
 71
     1
 72
     0
 73
     1
 90
        0
 40
-0.6
 41
-30.0
 62
     5
 63
     7
421
 16777215
 74
     0
 91
        4
 64
     7
 65
   257
 75
     1
175
     1
 42
1.0
 92
        8
 66
     7
 43
1.0
 76
     1
 77
     6
 78
     2
 67
     7
 79
     5
170
     0
171
     0
290
     0
174
     0
 93
        1
 44
0.0
173
     0
291
     1
 45
0.0
1001
ACAD
1000
AcDbSavedByObjectVersion
1070
     0
  0
VISUALSTYLE
  5
36
102
{ACAD_REACTORS
330
2A
102
}
330
2A
100
AcDbVisualStyle
  2
Brighten
 70
    12
 71
     2
 72
     2
 73
     0
 90
        0
 40
-0.6
 41
-30.0
 62
     5
 63
     7
421
 16777215
 74
     1
 91
        4
 64
     7
 65
   257
 75
     1
175
     1
 42
1.0
 92
        8
 66
     7
 43
1.0
 76
     1
 77
     6
 78
     2
 67
     7
 79
     5
170
     0
171
     0
290
     0
174
     0
 93
        1
 44
50.0
173
     0
291
     1
 45
0.0
1001
ACAD
1000
AcDbSavedByObjectVersion
1070
     0
  0
VISUALSTYLE
  5
3A
102
{ACAD_REACTORS
330
2A
102
}
330
2A
100
AcDbVisualStyle
  2
ColorChange
 70
    16
 71
     2
 72
     2
 73
     3
 90
        0
 40
-0.6
 41
-30.0
 62
     5
 63
     8
421
  8421504
 74
     1
 91
        4
 64
     7
 65
   257
 75
     1
175
     1
 42
1.0
 92
        8
 66
     8
424
  8421504
 43
1.0
 76
     1
 77
     6
 78
     2
 67
     7
 79
     5
170
     0
171
     0
290
     0
174
     0
 93
        1
 44
0.0
173
     0
291
     1
 45
0.0
1001
ACAD
1000
AcDbSavedByObjectVersion
1070
     0
  0
VISUALSTYLE
  5
34
102
{ACAD_REACTORS
330
2A
102
}
330
2A
100
AcDbVisualStyle
  2
Conceptual
 70
     9
 71
     3
 72
     2
 73
     0
 90
        0
 40
-0.6
 41
-30.0
 62
     5
 63
     7
421
 16777215
 74
     2
 91
        2
 64
     7
 65
   257
 75
     1
175
     1
 42
40.0
 92
        8
 66
     7
 43
1.0
 76
     1
 77
     6
 78
     2
 67
     7
 79
     3
170
     0
171
     0
290
     0
174
     0
 93
        1
 44
0.0
173
     0
291
     0
 45
0.0
1001
ACAD
1000
AcDbSavedByObjectVersion
1070
     0
  0
VISUALSTYLE
  5
35
102
{ACAD_REACTORS
330
2A
102
}
330
2A
100
AcDbVisualStyle
  2
Dim
 70
    11
 71
     2
 72
     2
 73
     0
 90
        0
 40
-0.6
 41
-30.0
 62
     5
 63
     7
421
 16777215
 74
     1
 91
        4
 64
     7
 65
   257
 75
     1
175
     1
 42
1.0
 92
        8
 66
     7
 43
1.0
 76
     1
 77
     6
 78
     2
 67
     7
 79
     5
170
     0
171
     0
290
     0
174
     0
 93
        1
 44
-50.0
173
     0
291
     1
 45
0.0
1001
ACAD
1000
AcDbSavedByObjectVersion
1070
     0
  0
VISUALSTYLE
  5
39
102
{ACAD_REACTORS
330
2A
102
}
330
2A
100
AcDbVisualStyle
  2
Facepattern
 70
    15
 71
     2
 72
     2
 73
     0
 90
        0
 40
-0.6
 41
-30.0
 62
     5
 63
     7
421
 16777215
 74
     1
 91
        4
 64
     7
 65
   257
 75
     1
175
     1
 42
1.0
 92
        8
 66
     7
 43
1.0
 76
     1
 77
     6
 78
     2
 67
     7
 79
     5
170
     0
171
     0
290
     0
174
     0
 93
        1
 44
0.0
173
     0
291
     1
 45
0.0
1001
ACAD
1000
AcDbSavedByObjectVersion
1070
     0
  0
VISUALSTYLE
  5
2B
102
{ACAD_REACTORS
330
2A
102
}
330
2A
100
AcDbVisualStyle
  2
Flat
 70
     0
 71
     2
 72
     1
 73
     1
 90
        2
 40
-0.6
 41
30.0
 62
     5
 63
     7
421
 16777215
 74
     0
 91
        4
 64
     7
 65
   257
 75
     1
175
     1
 42
1.0
 92
        8
 66
     7
 43
1.0
 76
     1
 77
     6
 78
     2
 67
     7
 79
     5
170
     0
171
     0
290
     0
174
     0
 93
       13
 44
0.0
173
     0
291
     1
 45
0.0
1001
ACAD
1000
AcDbSavedByObjectVersion
1070
     0
  0
VISUALSTYLE
  5
2C
102
{ACAD_REACTORS
330
2A
102
}
330
2A
100
AcDbVisualStyle
  2
FlatWithEdges
 70
     1
 71
     2
 72
     1
 73
     1
 90
        2
 40
-0.6
 41
30.0
 62
     5
 63
     7
421
 16777215
 74
     1
 91
        4
 64
     7
 65
   257
 75
     1
175
     1
 42
1.0
 92
        0
 66
   257
 43
1.0
 76
     1
 77
     6
 78
     2
 67
     7
 79
     5
170
     0
171
     0
290
     0
174
     0
 93
       13
 44
0.0
173
     0
291
     1
 45
0.0
1001
ACAD
1000
AcDbSavedByObjectVersion
1070
     0
  0
VISUALSTYLE
  5
2D
102
{ACAD_REACTORS
330
2A
102
}
330
2A
100
AcDbVisualStyle
  2
Gouraud
 70
     2
 71
     2
 72
     2
 73
     1
 90
        2
 40
-0.6
 41
30.0
 62
     5
 63
     7
421
 16777215
 74
     0
 91
        4
 64
     7
 65
   257
 75
     1
175
     1
 42
1.0
 92
        0
 66
     7
 43
1.0
 76
     1
 77
     6
 78
     2
 67
     7
 79
     5
170
     0
171
     0
290
     0
174
     0
 93
       13
 44
0.0
173
     0
291
     1
 45
0.0
1001
ACAD
1000
AcDbSavedByObjectVersion
1070
     0
  0
VISUALSTYLE
  5
2E
102
{ACAD_REACTORS
330
2A
102
}
330
2A
100
AcDbVisualStyle
  2
GouraudWithEdges
 70
     3
 71
     2
 72
     2
 73
     1
 90
        2
 40
-0.6
 41
30.0
 62
     5
 63
     7
421
 16777215
 74
     1
 91
        4
 64
     7
 65
   257
 75
     1
175
     1
 42
1.0
 92
        0
 66
   257
 43
1.0
 76
     1
 77
     6
 78
     2
 67
     7
 79
     5
170
     0
171
     0
290
     0
174
     0
 93
       13
 44
0.0
173
     0
291
     1
 45
0.0
1001
ACAD
1000
AcDbSavedByObjectVersion
1070
     0
  0
VISUALSTYLE
  5
38
102
{ACAD_REACTORS
330
2A
102
}
330
2A
100
AcDbVisualStyle
  2
Linepattern
 70
    14
 71
     2
 72
     2
 73
     0
 90
        0
 40
-0.6
 41
-30.0
 62
     5
 63
     7
421
 16777215
 74
     1
 91
        4
 64
     7
 65
   257
 75
     7
175
     7
 42
1.0
 92
        8
 66
     7
 43
1.0
 76
     1
 77
     6
 78
     2
 67
     7
 79
     5
170
     0
171
     0
290
     0
174
     0
 93
        1
 44
0.0
173
     0
291
     1
 45
0.0
1001
ACAD
1000
AcDbSavedByObjectVersion
1070
     0
  0
VISUALSTYLE
  5
33
102
{ACAD_REACTORS
330
2A
102
}
330
2A
100
AcDbVisualStyle
  2
Realistic
 70
     8
 71
     2
 72
     2
 73
     0
 90
        0
 40
-0.6
 41
-30.0
 62
     5
 63
     7
421
 16777215
 74
     1
 91
        0
 64
     7
 65
   257
 75
     1
175
     1
 42
1.0
 92
        8
 66
     8
424
  7895160
 43
1.0
 76
     1
 77
     6
 78
     2
 67
     7
 79
     5
170
     0
171
     0
290
     0
174
     0
 93
       13
 44
0.0
173
     0
291
     0
 45
0.0
1001
ACAD
1000
AcDbSavedByObjectVersion
1070
     0
  0
VISUALSTYLE
  5
37
102
{ACAD_REACTORS
330
2A
102
}
330
2A
100
AcDbVisualStyle
  2
Thicken
 70
    13
 71
     2
 72
     2
 73
     0
 90
        0
 40
-0.6
 41
-30.0
 62
     5
 63
     7
421
 16777215
 74
     1
 91
        4
 64
     7
 65
   257
 75
     1
175
     1
 42
1.0
 92
       12
 66
     7
 43
1.0
 76
     1
 77
     6
 78
     2
 67
     7
 79
     5
170
     0
171
     0
290
     0
174
     0
 93
        1
 44
0.0
173
     0
291
     1
 45
0.0
1001
ACAD
1000
AcDbSavedByObjectVersion
1070
     0
  0
ENDSEC
  0
EOF
